Song name
# A B C D E F G H I J K L M N O P Q R S T U V W X Y Z

The Freeze - Boston Not La tab

Hardcore PUNK. Standard Tuning.

-------------------------------------------------------|
-------------------------------------------------------|
---------8-8-7-7---------8-8-7-7-----------------------|
-7-7-5-5-8-8-7-7-7-7-5-5-8-8-7-7-----------------------|
-7-7-5-5-6-6-5-5-7-7-5-5-6-6-5-5-----------------------|
-5-5-3-3---------5-5-3-3-------------------------------|
riff 1

------------------------------------------------------|
------------------------------------------------------|
-5--5-------------------------------------------------|
-5--5-6-5-6-8-----------------------------------------|
-3--3-6-5-6-8-----------------------------------------|
------4-3-4-6-----------------------------------------|
riff 2

In Order:
riff 1 3x
riff 2 4x

yeah, not much to the song.
Tap to rate this tab
# A B C D E F G H I J K L M N O P Q R S T U V W X Y Z