Song name
# A B C D E F G H I J K L M N O P Q R S T U V W X Y Z

The Friday Night Boys - Suicide Sunday tab

Hello... My name is Tanner Secrest (tws2cool@yahoo.com)
I've never posted a tab in my life sooo....
This Song is SUICIDE SUNDAY- THE FRIDAY NIGHT BOYS
very easy and very fun to play and jump around all that fun stuff

Intro/Half of the verse
E------------------------------------------------|
B------------------------------------------------|
G--8-8-8-8--8-8-8--8-8---6s--8-8-8-8--8-8-8--8-8-|
D--x-x-x-x--x-x-x--x-x---x---x-x-x-x--x-x-x--x-x-|
A--6-6-6-6--6-6-6--6-6---4s--6-6-6-6--6-6-6--6-6-|
E------------------------------------------------|

E-------------------------------------------|
B-------------------------------------------|
G--8-8-8-8--8-8-8--8-8--8-8-8-8--8-8-8--8-8-|
D--x-x-x-x--x-x-x--x-x--x-x-x-x--x-x-x--x-x-|
A--6-6-6-6--6-6-6--6-6--6-6-6-6--6-6-6--6-6-|
E-------------------------------------------|

E-------------------------------------------|
B-------------------------------------------|
G-------------------------------------------|
D--8-8-8-8--8-8-8--8-8--6-6-6-6--6-6-6--6-6-|
A--x-x-x-x--x-x-x--x-x--x-x-x-x--x-x-x--x-x-|
E--6-6-6-6--6-6-6--6-6--4-4-4-4--4-4-4--4-4-|

Do that until he says "So tell me were we where what we did last night night"...
Then Palm mute this

E-----------------------------|Palm
B-----------------------------|mute
G--8--------------------------|all
D--8-x16--8-----6-------------|of
A--6------8-x8--6-x8----------|this
E---------6-----4-------------|exclamation mark!
Do this until the chorus wich is exactly the same
except no palm muting
chorus is exactly the same except no palm muting
        **CHORUS**
E----------------------------|
B----------------------------|
G--8-------------------------|
D--8-x16--8-----6------------|
A--6------8-x8--6-x8---------|
E---------6-----4------------|
     (seeeee?!?!?!:)

then the intro just once 0.o
then same palm muting junk
then same chorus
then the change when he sings
"Dont mean to be so condisending(or however you spell it)
it goes like
         (some is palm muted and some isnt0.o)
E-------------------------|
B-------------------------|
G-------------------8-----|
D---8----6----8-----8-x8--|
A---8-x8-6-x8-8-x8--6-----|
E---6----4----6-----------|

Then the na na na part is just the intro...
then the chorus 2...
but if you heard the song before then you know how it goes
any way the order is
intro
verse 1
chorus
verse 2
chorus 2
break or watever
then nanana part
then chorus 3
then chorus 4

pleas please please email me at tws2cool@yahoo.com if ive made any mistakes
cus im sure i have so please please contact me...
thank you
Tap to rate this tab
# A B C D E F G H I J K L M N O P Q R S T U V W X Y Z