Song name
# A B C D E F G H I J K L M N O P Q R S T U V W X Y Z

The Friday Night Boys - Suicide Sunday tab

The Friday Night Boys
Suicide Sunday
Off The Deep End

I thought the other version was missing some stuff and was messy so I decided to tab it.

Standard Tuning

x=mute note
.=palm mute
/=slide up
\=slide down

Intro - Guitar 1
e|---------------------------------------------|
B|---------------------------------------------|
G|--8--8-8--8-8-8--8-8-8--7/8-8--8-8-8--8-8-8--| x5
D|--x--x-x--x-x-x--x-x-x--x/x-x--x-x-x--x-x-x--|
A|--6--6-6--6-6-6--6-6-6--5/6-6--6-6-6--6-6-6--|
E|---------------------------------------------|

Verse - guitar 2
e|---------------------------------------------------------------------------|
B|---------------------------------------------------------------------------|
G|--8-8-8-8-8-8-8-8-8-8-8-8-8-8-8-8------------------------------------------|
D|--8-8-8-8-8-8-8-8-8-8-8-8-8-8-8-8-10-10-10-10-10-10-10-10-6-6-6-6-6-6-6-6--|
A|--6-6-6-6-6-6-6-6-6-6-6-6-6-6-6-6-10-10-10-10-10-10-10-10-6-6-6-6-6-6-6-6--|
E|-----------------------------------8--8--8--8--8--8--8--8-4-4-4-4-4-4-4-4--|
    . . . . . . . . . . . . . . . .  .  .  .  .  .  .  .  . . . . . . . . .

continued
-------------------------------------------------|
-------------------------------------------------|
--8-8-8-8-8-8------------------------------------|
--8-8-8-8-8-8-8-8-8-8-8-8-10-10-10-10-10-10-8-6--|
--6-6-6-6-6-6-8-8-8-8-8-8-10-10-10-10-10-10-8-6--|
--------------6-6-6-6-6-6--8--8--8--8--8--8-6-4--|
  . . . . . . . . . . . .  .  .  .  .  .  .

Chorus - both guitars
e|---------------------------------------------------------------------------|
B|---------------------------------------------------------------------------|
G|--8-8-8-8-8-8-8-8----------------------------------------------------------| x3
D|--8-8-8-8-8-8-8-8-8-8-8-8-8-8-8-8-10-10-10-10-10-10-10-10-6-6-6-6-6-6-6-6--|
A|--6-6-6-6-6-6-6-6-8-8-8-8-8-8-8-8-10-10-10-10-10-10-10-10-6-6-6-6-6-6-6-6--|
E|------------------6-6-6-6-6-6-6-6--8--8--8--8--8--8--8--8-4-4-4-4-4-4-4-4--|

The fourth time do half
-----------------------------------|
-----------------------------------|
--8-8-8-8-8-8-8-8------------------|
--8-8-8-8-8-8-8-8-8-8-8-8-8-8-8-8--|
--6-6-6-6-6-6-6-6-8-8-8-8-8-8-8-8--|
------------------6-6-6-6-6-6-6-6--|

Verse 2 - Back to this on guitar 1. Repeat until the chorus
e|---------------------------------------------|
B|---------------------------------------------|
G|--8--8-8--8-8-8--8-8-8--7/8-8--8-8-8--8-8-8--|
D|--x--x-x--x-x-x--x-x-x--x/x-x--x-x-x--x-x-x--|
A|--6--6-6--6-6-6--6-6-6--5/6-6--6-6-6--6-6-6--|
E|---------------------------------------------|

Verse 2 - guitar 2
e|---------------------------------------------------------------------------|
B|---------------------------------------------------------------------------|
G|--8-8-8-8-8-8-8-8-8-8-8-8-8-8-8-8------------------------------------------|
D|--8-8-8-8-8-8-8-8-8-8-8-8-8-8-8-8-10-10-10-10-10-10-10-10-6-6-6-6-6-6-6-6--|
A|--6-6-6-6-6-6-6-6-6-6-6-6-6-6-6-6-10-10-10-10-10-10-10-10-6-6-6-6-6-6-6-6--|
E|-----------------------------------8--8--8--8--8--8--8--8-4-4-4-4-4-4-4-4--|
    . . . . . . . . . . . . . . . .  .  .  .  .  .  . . . . . . . . . . . .

continued
---------------------------------------------------------------------|
---------------------------------------------------------------------|
--8-8-8-8-8-8-8-8----------------------------------------------------|
--8-8-8-8-8-8-8-8-8-8-8-8-8-8-8-8-10-10-10-10-10-10-6-6-6-6-6-6-6-6--|
--6-6-6-6-6-6-6-6-8-8-8-8-8-8-8-8-10-10-10-10-10-10-6-6-6-6-6-6-6-6--|
------------------6-6-6-6-6-6-6-6--8--8--8--8--8--8-4-4-4-4-4-4-4-4--|
  . . . . . . . . . . . . . . . .  .  .  .  .  .  . . . . . . . . .

continued
---------------------------------------------------------|
---------------------------------------------------------|
--8-8-8-8-8-8--------------------------------------------|
--8-8-8-8-8-8-8-8-8-8-8-8-10-10-10-10-10-10-6-6-6-6-6-6--|
--6-6-6-6-6-6-8-8-8-8-8-8-10-10-10-10-10-10-6-6-6-6-6-6--|
--------------6-6-6-6-6-6--8--8--8--8--8--8-4-4-4-4-4-4--|
  . .   . .   . .   . .    .  .     .  .    . .   . .

continued
-----------------------------------------------|
-----------------------------------------------|
--8-8-8-8-8-8----------------------------------|
--8-8-8-8-8-8-8-8-8-8-8-8-10-10-10-10-10-8-6\--|
--6-6-6-6-6-6-8-8-8-8-8-8-10-10-10-10-10-8-6\--|
--------------6-6-6-6-6-6--8--8--8--8--8-6-4\--|
  . .   . .   . .   . .    .  .     .  .

Chorus 2 - both guitars
e|---------------------------------------------------------------------------|
B|---------------------------------------------------------------------------|
G|--8-8-8-8-8-8-8-8----------------------------------------------------------| x4
D|--8-8-8-8-8-8-8-8-8-8-8-8-8-8-8-8-10-10-10-10-10-10-10-10-6-6-6-6-6-6-6-6--|
A|--6-6-6-6-6-6-6-6-8-8-8-8-8-8-8-8-10-10-10-10-10-10-10-10-6-6-6-6-6-6-6-6--|
E|------------------6-6-6-6-6-6-6-6--8--8--8--8--8--8--8--8-4-4-4-4-4-4-4-4--|

Bridge part 1 - guitar 1
e|----------------------------------|
B|----------------------------------|
G|-----------------------8----------|
D|--8------3------6------8---8---8--|
A|--8------3------6------6---8---8--|
E|--6------1------4----------6---6--|

Bridge part 1 - guitar 2 (Repeated a bunch of times)
e|-----------|
B|----3-4-3--|
G|--3--------|
D|-----------|
A|-----------|
E|-----------|

Bridge part 2 - guitar 1
e|-------------------------------------------|
B|-------------------------------------------|
G|--8----------------------------------------|
D|--8-(x16)-8--------6-------10------8-------|
A|--6-------8-(x16)--6-(x16)-10-(x8)-8-(x8)--|
E|----------6--------4--------8------6-------|
    .       .        .        .      .

continued
---------------------------------------------------------------------------------------|
---------------------------------------------------------------------------------------|
--8-8-8-8-8-8-8-8-8-8-8-8-8-8----------------------------------------------------------|
--8-8-8-8-8-8-8-8-8-8-8-8-8-8-8-8-8-8-8-8-8-8-8-8-8-8-8-8-6-6-6-6-6-6-6-6-6-6-6-6-6-6--|
--6-6-6-6-6-6-6-6-6-6-6-6-6-6-8-8-8-8-8-8-8-8-8-8-8-8-8-8-6-6-6-6-6-6-6-6-6-6-6-6-6-6--|
------------------------------6-6-6-6-6-6-6-6-6-6-6-6-6-6-4-4-4-4-4-4-4-4-4-4-4-4-4-4--|
  . . . .   .   . . . .   .   . . . .   .   . . . .   .   . . . .   .   . . . .   .

continued
---------------------|
---------------------|
---------------------|
--10-10-10-10-10-8\--|
--10-10-10-10-10-8\--|
---8--8--8--8--8-6\--|
And I hear some trem. picking on fret 11 on the b string but it's kind of a waste of space.

After that, a pick slide and into the third chorus.

Chorus 3 - both guitars
e|--------------------------------------------------------------|
B|--------------------------------------------------------------|
G|--------------------------------------------------------------|
D|--10-8-8-8-8-8-8-8-8-10-10-10-10-10-10-10-10-6-6-6-6-6-6-6-6--|
A|--10-6-6-6-6-6-6-6-6-10-10-10-10-10-10-10-10-6-6-6-6-6-6-6-6--|
E|---8-6-6-6-6-6-6-6-6--8--8--8--8--8--8--8--8-4-4-4-4-4-4-4-4--|

continued
---------------------------------------------------------------------------|
---------------------------------------------------------------------------|
--8-8-8-8-8-8-8-8----------------------------------------------------------| x6
--8-8-8-8-8-8-8-8-8-8-8-8-8-8-8-8-10-10-10-10-10-10-10-10-6-6-6-6-6-6-6-6--|
--6-6-6-6-6-6-6-6-8-8-8-8-8-8-8-8-10-10-10-10-10-10-10-10-6-6-6-6-6-6-6-6--|
------------------6-6-6-6-6-6-6-6--8--8--8--8--8--8--8--8-4-4-4-4-4-4-4-4--|

The seventh time do this
------------------------------------------------------|
------------------------------------------------------|
--8-8-8-8-8-8-8-8-------------------------------------|
--8-8-8-8-8-8-8-8-8-8-8-8-8-8-8-8-10-10-10-10-10-8-6--|
--6-6-6-6-6-6-6-6-8-8-8-8-8-8-8-8-10-10-10-10-10-8-6--|
------------------6-6-6-6-6-6-6-6--8--8--8--8--8-6-4--|

Notes:
-I know Andrew plays it differently live but this is what it sounds like in the studio version.
-They play it a step (2 frets) down live.

That's all you need to know. Have fun.
Tap to rate this tab
 
# A B C D E F G H I J K L M N O P Q R S T U V W X Y Z