Song name
# A B C D E F G H I J K L M N O P Q R S T U V W X Y Z

The Friday Night Boys - High School tab

Tabbed by: Izzy-M

High School - Friday Night Boys
Standard Tuning

There is probably mistakes but i saw there wasn't a full tab for this so i thought i'd have a go.
The solo is from the acoustic version but when i work out the proper one i'll update it.

If you have any  corrections please comment.


Intro
Guitar 1
e|-----------------------------|
B|----17-17p15--17/19p14-15-15-|
G|-14--------------------------|
D|-----------------------------|
A|-----------------------------|
E|-----------------------------|

e|-----------------14h15p14-----------|
B|----17-17p15--17----------17-15-----|
G|-14-----------------------------14--|
D|------------------------------------|
A|------------------------------------|
E|------------------------------------|

Intro and Verse
Guitar 2
e|---------0-----------------------|
B|-----3-----3---3-----------------|
G|---2---2-----2-------------------| --->	Until Chorus
D|-0-------------------------------|
A|---------------------------------|
E|---------------------------------|

Falling from my mouth... (work out timing)
Guitar 1
e|-----|
B|-----|
G|--7--|
D|--x--|
A|--5--|
E|-----|

Pre Chorus
Guitar 1, I'd let you go... (work out the timing)
e|------------------|
B|------------------|
G|--7~--------------|
D|--7~----7~----5~--|
A|--5~----7~----5~--|
E|--------5~----3~--|

Hold you close...
e|------------|
B|------------|
G|--7~--------|
D|--7~----7~--|
A|--5~----7~--|
E|--------5~--|

...heart says No
e|------------------|
B|------------------|
G|------------------|
D|--7~----9~----5~--|
A|--7~----9~----5~--|
E|--5~----7~----3~--|


Chorus ,  Well it feels like High School...
Guitar 1
e|------------------------------------------------|
B|------------------------------------------------|
G|--7-----------------------7---------------------|
D|--7-x8--7-----9-----5-----7-----7-----9-----5~--|
A|--5-----7-x8--9-x8--5-x8--5-x8--7-x8--9-x3--5~--|
E|--------5-----7-----3-----------5-----7-----3~--|

Intro x1

Verse 2

Guitar 2
e|---------0-----------------------|
B|-----3-----3---3-----------------|
G|---2---2-----2-------------------| --->	Until Chorus
D|-0-------------------------------|
A|---------------------------------|
E|---------------------------------|

Guitar 1, But I'm waking up... (work out timing)
e|-----|
B|-----|
G|--7--|
D|--x--|
A|--5--|
E|-----|

Pre Chorus x1
Chorus x2

Solo, This solo is from the acoustic version.

Guitar 2
e|----------------------7p5----------------------------------------------|
B|--5h7p5h7p5h7p5h7p5h7-----7p5h7-5/7/9/10~-10/12/14/16/17--17-14--------|
G|--------------------------------------------------------------16-14/13-|
D|-----------------------------------------------------------------------|
A|-----------------------------------------------------------------------|
E|-----------------------------------------------------------------------|

e|--16h17p16------16-16h17p16----16h17p16------16h17h19---17--|
B|----------17--17-----------17----------17--17--------17-----|
G|------------16---------------16----------16------------16---|
D|------------------------------------------------------------|
A|------------------------------------------------------------|
E|------------------------------------------------------------|

e|--16-17-19-----------------------------|
B|-----------17--19-16--12-16h17p16-17~--|
G|---------------------------------------|
D|---------------------------------------|
A|---------------------------------------|
E|---------------------------------------|

Guitar 1
e|----------------------------------|
B|----------------------------------|
G|--9-------------------------------|
D|--9-x16--9------11------7-----7~--|
A|--7------9-x16--11-x16--7-x8--7~--|
E|---------7------9-------5-----5~--|

Bridge, I got over you at last...
Guitar 1
e|---------------------------|
B|---------------------------|
G|--9------------------------|x2
D|--9-x8--9-----11-----7-----|
A|--7-----9-x8--11-x8--7-x8--|
E|--------7------9-----5-----|

e|------|
B|------|
G|------|
D|--7~--|
A|--7~--|
E|--5~--|

Guitar 2 (Clean)
e|------------|
B|----5-4-----|
G|--4-----4~--|
D|------------|
A|------------|
E|------------|

Well it feels like high school... (Work out strumming yourself)
Guitar 1 (clean)
e|---------------------------|
B|---------------------------|
G|--9------------------------|
D|--9-x8--9-----11-----7-----|
A|--7-----9-x8--11-x8--7-x8--|
E|--------7------9-----5-----|

Guitar 2 (clean)
e|---4------------|
B|----5--7-5-4-5--|
G|--4--4----------|x4
D|----------------|
A|----------------|
E|----------------|

Chorus
Guitar 1
e|--------------------------------------------------|
B|--------------------------------------------------|
G|--9------------------------9----------------------|
D|--9-x8--9-----11-----7-----9-----9-----11-----7~--|
A|--7-----9-x8--11-x8--7-x8--7-x8--9-x8--11-x3--7~--|
E|--------7-----9------5-----------7-----9------5~--|

Outro

Guitar 1
e|--------------------------------------------------|
B|--------------------------------------------------|
G|--9------------------------9----------------------|
D|--9-x8--9-----11-----7-----9-----9-----11-----7~--|
A|--7-----9-x8--11-x8--7-x8--7-x8--9-x8--11-x3--7~--|
E|--------7-----9------5-----------7-----9------5~--|

Guitar 2
e|-----------------------------|
B|----19-19p17--19/21p16-17-17-|
G|-16--------------------------|
D|-----------------------------|
A|-----------------------------|
E|-----------------------------|
                                                 x2
e|-----------------16h17p16-----------|
B|----19-19p17--19----------19-17-----|
G|-16-----------------------------16--|    
D|------------------------------------|
A|------------------------------------|
E|------------------------------------|

High schools Over.
Guitar 1
e|-----------------|
B|-----------------|
G|-----------------|
D|--11----9----7~--|
A|--11----9----7~--|
E|--9-----7----5~--|

Guitar 2
e|-----------------|
B|-----------------|
G|--21----19---17--|
D|-----------------|
A|-----------------|
E|-----------------|
Tap to rate this tab
 
# A B C D E F G H I J K L M N O P Q R S T U V W X Y Z