Song name
# A B C D E F G H I J K L M N O P Q R S T U V W X Y Z

The Friday Night Boys - Stupid Love Letter tab

Song: Stupid Love Letter
Band: The Friday Night Boys
Album: Off the Deep End
Year: 2009 @ Fueled By Raman

All music is by Friday Night Boys.
Tabbed by me

Tuning - Drop D

Intro/verse -  the first part isn't on guitar but if you want to play it, do it on clean pm'd

E|---------------------------------|
B|---------------------------------|
G|---------------------------------| X 3
D|-8-------8-------4-------1-------|
A|-8-------8-------4-------1-------|
D|-8-------8-------4-------1-------|
   .       .       .       .
Verse Continued -  (this is where guitar comes in, light trebly distortion) if you dont 
the timing scheme just play along with the song and you should get it.

E|--------------------------------------------------------|
B|--------------------------------------------------------|
G|--------------------------------------------------------| X 2
D|-8---8----8-8---8---8----8-8---8---4---4---4-4---1---1--|
A|-8---8----8-8---8---8----8-8---8---4---4---4-4---1---1--|
D|-8---8----8-8---8---8----8-8---8---4---4---4-4---1---1--|

Chorus - (once again if you dont get the timing play with the song)

Guitar 1 (X 4)
E|-------------------------------------------------------------------------|
B|-------------------------------------------------------------------------|
G|-6---6---6---6-6-6-5---5---5---5-5-5-3---3---3---3-3-3-------------------|
D|-6---6---6---6-6-6-6---6---6---6-6-6-3---3---3---3-3-3-4---4---4---4-4-4-|
A|-4---4---4---4-4-4-3---3---3---3-3-3-1---1---1---1-1-1-4---4---4---4-4-4-|
D|-------------------------------------------------------4---4---4---4-4-4-|

Guitar 2 (X4)
E|-------------------------------------------------------------------------|
B|-------------------------------------------------------------------------|
G|-6---6---6---6-6-6-------------------3---3---3---3-3-3-------------------|
D|-6---6---6---6-6-6-6---6---6---6-6-6-3---3---3---3-3-3-4---4---4---4-4-4-|
A|-4---4---4---4-4-4-6---6---6---6-6-6-1---1---1---1-1-1-4---4---4---4-4-4-|
D|-------------------6---6---6---6-6-6-------------------4---4---4---4-4-4-|

Verse 2 Part 1

E|-----------------------------------------------------|
B|-----------------------------------------------------|
G|-----------------------------------------------------|
D|-8---8--------8---8--------4---4--------1---1--------| X 1
A|-8---8--------8---8--------4---4--------1---1--------|
D|-8---8--------8---8--------4---4--------1---1--------|

Verse Continued -  (this is where guitar comes in, light trebly distortion) if you dont 
the timing scheme just play along with the song and you should get it.

E|--------------------------------------------------------|
B|--------------------------------------------------------|
G|--------------------------------------------------------| X 2
D|-8---8----8-8---8---8----8-8---8---4---4---4-4---1---1--|
A|-8---8----8-8---8---8----8-8---8---4---4---4-4---1---1--|
D|-8---8----8-8---8---8----8-8---8---4---4---4-4---1---1--|

Chorus - (once again if you dont get the timing play with the song)

Guitar 1 (X 4)
E|-------------------------------------------------------------------------|
B|-------------------------------------------------------------------------|
G|-6---6---6---6-6-6-5---5---5---5-5-5-3---3---3---3-3-3-------------------|
D|-6---6---6---6-6-6-6---6---6---6-6-6-3---3---3---3-3-3-4---4---4---4-4-4-|
A|-4---4---4---4-4-4-3---3---3---3-3-3-1---1---1---1-1-1-4---4---4---4-4-4-|
D|-------------------------------------------------------4---4---4---4-4-4-|

Guitar 2 (X4)
E|-------------------------------------------------------------------------|
B|-------------------------------------------------------------------------|
G|-6---6---6---6-6-6-------------------3---3---3---3-3-3-------------------|
D|-6---6---6---6-6-6-6---6---6---6-6-6-3---3---3---3-3-3-4---4---4---4-4-4-|
A|-4---4---4---4-4-4-6---6---6---6-6-6-1---1---1---1-1-1-4---4---4---4-4-4-|
D|-------------------6---6---6---6-6-6-------------------4---4---4---4-4-4-|

Refrain - Not sure what instrument is here, keys or bass maybe, but if you play these 
on guitar along with the song it sounds okay.

E|-----------------------------------------|
B|-----------------------------------------|
G|------------------6----------------------|
D|-1-------4-------6--------6--------| X 2-|
A|-1-------4-------4--------6--------------|
D|-1-------4----------------6--------------|

Chorus - (once again if you dont get the timing play with the song)

Guitar 1 (X 4)
E|-------------------------------------------------------------------------|
B|-------------------------------------------------------------------------|
G|-6---6---6---6-6-6-5---5---5---5-5-5-3---3---3---3-3-3-------------------|
D|-6---6---6---6-6-6-6---6---6---6-6-6-3---3---3---3-3-3-4---4---4---4-4-4-|
A|-4---4---4---4-4-4-3---3---3---3-3-3-1---1---1---1-1-1-4---4---4---4-4-4-|
D|-------------------------------------------------------4---4---4---4-4-4-|

Guitar 2 (X4)
E|-------------------------------------------------------------------------|
B|-------------------------------------------------------------------------|
G|-6---6---6---6-6-6-------------------3---3---3---3-3-3-------------------|
D|-6---6---6---6-6-6-6---6---6---6-6-6-3---3---3---3-3-3-4---4---4---4-4-4-|
A|-4---4---4---4-4-4-6---6---6---6-6-6-1---1---1---1-1-1-4---4---4---4-4-4-|
D|-------------------6---6---6---6-6-6-------------------4---4---4---4-4-4-|
Tap to rate this tab
# A B C D E F G H I J K L M N O P Q R S T U V W X Y Z