Song name
# A B C D E F G H I J K L M N O P Q R S T U V W X Y Z

The Friends You Never Had - Just Another Life Acoustic chords

Highlighted       Show chord diagrams
Intro:

Guitar 1:
    1   +   2   +   3   +   4   +      1   +   2   +   3   +   4   +
e|----------------------------------|----------------------------------|
B|----------7-------7-------7-------|----------7-------7-------7-------|
G|------6-------6-------6-------6---|--r---4-------4-------4-------4---|
D|----------------------------------|----------------------------------|
A|----------------------------------|----------------------------------|
E|----------------------------------|----------------------------------|
                                                          	         Play 3x
    1   +   2   +   3   +   4   +      1   +   2   +   3   +   4   +
e|----------2-------2-------2-------|----------1-------1-------1-------|
B|----------------------------------|----------------------------------|
G|--r---2-------2-------2-------2---|--r---1-------1-------1-------1---|
D|----------------------------------|----------------------------------|
A|----------------------------------|----------------------------------|
E|----------------------------------|----------------------------------|

Guitar 2:
F#5  E5
    1   +   2   +   3   +   4   +      1   +   2   +   3   +   4   +
e|----------------------------------|----------------------------------|
B|----------------------------------|----------------------------------|
G|----------------------------------|----------------------------------|
D|--0---------------------------0---|----------------------------------|
A|----------------------------------|--4---------------------------4---|
E|----------------------------------|----------------------------------|
Play 3x

Guitar 3:
    1   +   2   +   3   +   4   +      1   +   2   +   3   +   4   +
e|--9---r-------------------10----9-|--7---r-------------------9-----7-|
B|----------------------------------|----------------------------------|
G|----------------------------------|----------------------------------|
D|----------------------------------|----------------------------------|
A|----------------------------------|----------------------------------|
E|----------------------------------|----------------------------------|
         Play 3x
    1   +   2   +   3   +   4   +      1   +   2   +   3   +   4   +
e|--5---r-------------------7-----5-|--4---r-----------9---------------|
B|----------------------------------|----------------------------------|
G|----------------------------------|----------------------------------|
D|----------------------------------|----------------------------------|
A|----------------------------------|----------------------------------|
E|----------------------------------|----------------------------------|

F#  E  D  C#  G  C#

A        G#            F#
Another day has just begun
             D                A
Another one full of lies and fears
	      G#                 F#
Canít bear to get out of bed at all

D C# B A

A            G#               F#
Why are you afraid to take a chance
                 D                  A
ĎCause of your failures and heartbreaks
               G#                F#
But canít you see that itís not real
              D
So wipe your tears

E

A	       D                F#
Just stop and close your eyes
		E             A
See a world better than this
                D              F#
And donít ever say good-bye
		 E
ĎCause you never know what you might miss

A  D  E  F#

A5		 G#5                F#5
All of your tears have taken their toll
	       D5                 A5
Thereís not a thing left of your soul
	     G#5             F#5
But there is nothing you can do

Youíve lost control

D  C# B A

A5	   G#5               F#5
No way to break out of this hell
	       D5                  A5
The harder you try the harder you fall
                 G#5              F#5
So why not just live for this moment
              D
Letís scream out

E

A	       D                F#
Just stop and close your eyes
		E             A
See a world better than this
                D              F#
And donít ever say good-bye
		 E
ĎCause you never know what you might miss

A	       D                F#
Just stop and close your eyes
		E             A
See a world better than this
                D              F#
And donít ever say good-bye
		 E
ĎCause you never know what you might miss

keep repeating this throughout the last chorus:
    1   +   2   +   3   +   4   +      1   +   2   +   3   +   4   +
e|----------5---------------5-------|--4-------2-----4-----2---0-------|
B|--2---------------2---------------|----------------------------------|
G|----------------------------------|----------------------------------|
D|----------------------------------|----------------------------------|
A|----------------------------------|----------------------------------|
E|----------------------------------|----------------------------------|

    1   +   2   +   3   +   4   +      1   +   2   +   3   +   4   +
e|----------5---------------5-------|--4---2---0---2---4---5---9---7---|
B|----------------------------------|----------------------------------|
G|--2---------------2---------------|----------------------------------|
D|----------------------------------|----------------------------------|
A|----------------------------------|----------------------------------|
E|----------------------------------|----------------------------------|

end on A
Tap to rate this tab
# A B C D E F G H I J K L M N O P Q R S T U V W X Y Z