The Frights - Beach Porn tab

Tabbed by: Chris Olson
Date: 4/30/14

No tabs for these guys yet, so I decided to make one myself

Song: Beach Porn
Artist: The Frights
Album: Dead Beach EP

time: 4/4

Intro/Verse - clean - easiest if you fingerpick it 

e:--------------------------------------------|  
B:-----2----4---2------2----------------------|
G:----3--3------------3--3--4---3-------------|  2x
D:--4-----4---------4-----4-------------------|  
A:--------------------------------------------| 
E:--------------------------------------------| 

e:--------------------------------------------|  
B:-----7----9---7------7----------------------|
G:----8--8------------8--8--9---8-------------|  2x
D:--9-----9---------9-----9-------------------|  
A:--------------------------------------------| 
E:--------------------------------------------| 


Chorus - with distortion - strum pattern: DDUDU

e:--------------------|
B:--------------------|
G:------------4-------|
D:--4---------4--40x--|
A:--4--40x----2-------|
E:--2-----------------|

Outro - with distortion

e:------------------2------|
B:------------------2------|
G:--3-------3-------3------|
D:--4-------4-------4------|
A:--4-------4-------4------|
E:--2-------2-------2------|
Tap to rate this tab
 
# A B C D E F G H I J K L M N O P Q R S T U V W X Y Z