Song name
# A B C D E F G H I J K L M N O P Q R S T U V W X Y Z

The Frights - Tommys 20 tab

Tabbed by: Chris Olson
Date: 5/3/14

Song: Tommy's $20
Artist: The Frights
Album: The Frights

time: 4/4

Intro

e|--0-----3--2-0-------------------------------------------------------------|
B|--0------------0--3-2-0----------------------------------------------------|
G|--1------------------------------------------------------------------------|
D|--2------------------------------------------------------------------------|
A|--2------------------------------------------------------------------------|
E|--0------------------------------------------------------------------------|
    ^hold and let ring   

Intro pt. 2

e|---------------------------------------------------------------------------|
B|----------9---------------9-------/----------------------------------------|
G|--1-------9-------1-------9-------/----------------------------------------|
D|--2-------9-------2-------9-------/----------------------------------------|
A|--2-------7-------2-------7-------/----------------------------------------|
E|--0------(0)------0------(0)-----------------------------------------------|
                                    ^ weird noise here (not sure how he does it)

Intro pt. 3

e|----------------3-2-0-0-0----------------0-0-0-0-0-------------------------|
B|----------------0-0-0-0-0----------------3-2-0-0-0-------------------------|
G|--1--1-1--1-1-1-1-1-1-1-1--1--1-1--1-1-1-1-1-1-1-1-------------------------|
D|--2--2-2--2-2-2-2-2-2-2-2--2--2-2--2-2-2-2-2-2-2-2-------------------------|
A|--2--2-2--2-2-2-2-2-2-2-2--2--2-2--2-2-2-2-2-2-2-2-------------------------|
E|--0--0-0--0-0-0-0-0-0-0-0--0--0-0--0-0-0-0-0-0-0-0-------------------------|
    D  D U  U D U D D D D U  D  D U  U D U D D D D U

Intro pt. 4 

e|----------------------------0-0-0-0----------------------------------------|
B|----------------------------0-0-0-0----------------------------------------|
G|--6-6-6-6-8-8-8-8-1---------1-1-1-1----------------------------------------|
D|--7-7-7-7-9-9-9-9-2---------2-2-2-2----------------------------------------|
A|--7-7-7-7-9-9-9-9-2---------2-2-2-2----------------------------------------|
E|--5-5-5-5-7-7-7-7-0---------0-0-0-0----------------------------------------|

Verse

e|---------------------------------------------------------------------------|
B|---------------------------------------------------------------------------|
G|--1----------1-1-1-1------------1-1-1-1------------1-----------------------|
D|--2----------2-2-2-2------------2-2-2-2------------2-----------------------|
A|--2----------2-2-2-2------------2-2-2-2------------2-----------------------|
E|--0----------0-0-0-0------------0-0-0-0------------0-----------------------|

Chorus

e|------------------0--------------------------------------------------------|
B|------------------0--------------------------------------------------------|
G|--6-6-6-6-8-8-8-8-1--------------------------------------------------------|
D|--7-7-7-7-9-9-9-9-2--play this chord as many times as needed---------------|
A|--7-7-7-7-9-9-9-9-2--------------------------------------------------------|
E|--5-5-5-5-7-7-7-7-0--------------------------------------------------------|

Break part

e|--0-----3--2-0------------0-----3--2-0/15-15-15-15-15-------0--------------|
B|--0------------0--3-2-0---0------------------------------------------------|
G|--1-----------------------1------------------------------------------------|
D|--2-----------------------2------------------------------------------------|
A|--2-----------------------2------------------------------------------------|
E|--0-----------------------0------------------------------------------------|

Break Part pt. 2

e|---------------------------------------------------------------------------|
B|------/---9---/-------/---9-------/----------------------------------------|
G|--1---/---9---/---1---/---9-------/----------------------------------------|
D|--2---/---9---/---2---/---9-------/----------------------------------------|
A|--2---/---7---/---2---/---7-------/----------------------------------------|
E|--0------(0)------0------(0)-----------------------------------------------|
        ^       ^       ^           ^ weird noise here 

End Of Last Chorus

e|--------------------------------------------------0------------------------|
B|--------------------------------------------------0------------------------|
G|--6-6-6-6-8-8-8-8-6-6-6-6-8-8-8-8-6-6-6-6-8-8-8-8-1------------------------|
D|--7-7-7-7-9-9-9-9-7-7-7-7-9-9-9-9-7-7-7-7-9-9-9-9-2------------------------|
A|--7-7-7-7-9-9-9-9-7-7-7-7-9-9-9-9-7-7-7-7-9-9-9-9-2------------------------|
E|--5-5-5-5-7-7-7-7-5-5-5-5-7-7-7-7-5-5-5-5-7-7-7-7-0------------------------|

End on Intro


************************************

| /   slide up
| \   slide down
| h   hammer-on
| p   pull-off
| ~   vibrato
| +   harmonic
| x   Mute note
| b   Bend
| pb  Pre-bend
| br  Bend release
| pbr Pre-bend release
| brb Bend release bend

************************************
Tap to rate this tab
 
# A B C D E F G H I J K L M N O P Q R S T U V W X Y Z