The Front Bottoms - Bath Tub tab

Easy and very simple song from a great band. Played in standard tuning.

http://thefrontbottoms.tumblr.com/
www.purevolume.com/new/thefrontbottoms

 I am washing my hair with soap...
e|-----------------------------------|
B|-----------------------------------|
G|----0---0---0---0---3---3---3---3--|
D|-----------------------------------|
A|--3---3---0---0---1---1---1---1----|
E|-----------------------------------|

 So I scrub and scrub 'til my body bleeds..
e|-------------------------------------------------------------------|
B|-------------------------------------------------------------------|
G|----0---0---0---0---0---0---0---0---0---0---0---0---0---0---0---0--|
D|-------------------------------------------------------------------|
A|------------------0---0---0---0---1---1---1---1---3---3---3---3----|
E|--1---1---1---1----------------------------------------------------|


 Relax my muscles...
e|-------------------------------------------------|
B|-------------------------------------------------|
G|--3333333333333333-------------------------------|
D|--3333333333333333-------------------------------|
A|--1111111111111111-------------------------------|
E|-------------------------------------------------|

 All of a sudden I am scared..
e|---------------------------------------------------------------------|
B|---------------------------------------------------------------------|
G|---------------------------------------------------------------------|
D|---------------------------------------------------------------------|
A|-------------------3333333333333333-88888888-101010/88888-111111111--|
E|--1111111111111111---------------------------------------------------|

 She said "Can you feel that?"..
e|----------------------------------------------------------------------------------|
B|----------------------------------------------------------------------------------|
G|----------------------------------------------------------------------------------|
D|--3333333333333333-5555555555555555-1010101010101010-121212-1010101010-333333333--|
A|--3333333333333333-3333333333333333--8-8-8-8-8-8-8-8-101010/-8-8-8-8-8-111111111--|
E|--1111111111111111----------------------------------------------------------------|

 And I am washing my hair with soap..
e|----------------------------------------------------------------------------------------|
B|----------------------------------------------------------------------------------------|
G|--555-33333----------555-33333----------5-5-5-3-3-----------555-33333-------------------|
D|--555-33333-33333333-555-33333----------5-5-5-3-3--33333333-555-33333-3333333333333333--|
A|--333-11111-33333333-333-11111-33333333-3-3-3-1-1--33333333-333-11111-3333333333333333--|
E|------------11111111-----------11111111------------11111111-----------1111111111111111--|

 But there is air inside of my lungs...   (Third time)
e|-----------------------------------|   
B|-----------------------------------|   
G|----0---0---0---0---3---3---3---3--|   
D|-----------------------------------|   
A|--3---3---0---0---1---1---1---1----|   
E|-----------------------------------|   

e|---------------------------------------------------------------------------|
B|---------------------------------------------------------------------------|
G|----0---0---0---0---0---0---0---0---0---0---3---3---3---3---3---3---3---3--|
D|---------------------------------------------------------------------------|
A|--3---3---0---0---0---0---0---0---0---0---1---1---1---1---1---1---1---1----|
E|---------------------------------------------------------------------------|

 So I will run and..
e|-------------------------------------------------------------------|
B|-------------------------------------------------------------------|
G|----0---0---0---0---0---0---0---0---0---0---0---0---0---0---0---0--|
D|-------------------------------------------------------------------|
A|------------------0---0---0---0---1---1---1---1---3---3---3---3----|
E|--1---1---1---1----------------------------------------------------|

 Relax all the muscles in my face...
e|-------------------------------------------------|
B|-------------------------------------------------|
G|--3333333333333333-------------------------------|
D|--3333333333333333-------------------------------|
A|--1111111111111111-------------------------------|
E|-------------------------------------------------|


 All of a sudden I am scared..
e|---------------------------------------------------------------------|
B|---------------------------------------------------------------------|
G|---------------------------------------------------------------------|
D|---------------------------------------------------------------------|
A|-------------------3333333333333333-88888888-101010/88888-111111111--|
E|--1111111111111111---------------------------------------------------|

 She said "Can you feel that?"..
e|----------------------------------------------------------------------------------|
B|----------------------------------------------------------------------------------|
G|----------------------------------------------------------------------------------|
D|--3333333333333333-5555555555555555-1010101010101010-121212-1010101010-333333333--|
A|--3333333333333333-3333333333333333--8-8-8-8-8-8-8-8-101010/-8-8-8-8-8-111111111--|
E|--1111111111111111----------------------------------------------------------------|

 And I am washing my hair with soap..
e|----------------------------------------------------------------------------------------|
B|----------------------------------------------------------------------------------------|
G|--555-33333----------555-33333----------5-5-5-3-3-----------555-33333-------------------|
D|--555-33333-33333333-555-33333----------5-5-5-3-3--33333333-555-33333-3333333333333333--|
A|--333-11111-33333333-333-11111-33333333-3-3-3-1-1--33333333-333-11111-3333333333333333--|
E|------------11111111-----------11111111------------11111111-----------1111111111111111--|

 With soap...
e|----------------------------|
B|----------------------------|
G|----------------------------|
D|--33333333333333333333333~--|
A|--33333333333333333333333~--|
E|--11111111111111111111111~--| 
Tap to rate this tab
 
# A B C D E F G H I J K L M N O P Q R S T U V W X Y Z