Song name
# A B C D E F G H I J K L M N O P Q R S T U V W X Y Z

The Front Bottoms - Twelve Feet Deep tab

Twelve Feet Deep by The Front Bottoms
Standard Tuning
Tabbed from a solo performance by The Front Bottoms for Acoustic Alley on
(http://www.youtube.com/watch?v=CrVurb-0OvY)

Chorus Pt. 1 "Cause you are water, twelve feet deep..."
e [-------------------------|
B [-------------------------|
G [-------------------------|
D [-------------------------|  x 4
A [----7----7----4----2-----|
E [----5----4----2----0-----|


Hold the final A [--2--| for "Soooooo puuuuuunk..."
               E [--0--| 


Chorus Pt. 2 "And yes we can keep living like this..."
e [--------------------------------------------|
B [--------------------------------------------|
G [--------------------------------------------|
D [----7----7----7----7------------------------|  x 2
A [----5----5----5----5----7----7----4----2----|
E [------------------------5----4----2----0----|


Hold the final A [--2--| for "Since when did..."
               E [--0--| 


Verse "I want to hear your voice not become a good excuse..."
e [-------------------------|
B [-------------------------|
G [-------------------------|
D [---------7---------------|  x 8
A [----4----5----7----7-----|
E [----2---------5----5-----|


Repeat Chorus Pt. 1 "Cause you are water, twelve feet deep..."

Repeat Chorus Pt. 2 "And yes we can keep living like this..."

Repeat Verse "Every plan they make, that is what I have to do..."

Repeat Chorus Pt. 1 "Cause you are water, twelve feet deep..."

Repeat Chorus Pt. 2 "And yes we can keep living like this..."
Tap to rate this tab
# A B C D E F G H I J K L M N O P Q R S T U V W X Y Z