Song name
# A B C D E F G H I J K L M N O P Q R S T U V W X Y Z

The Front Bottoms - Flashlight tab

My absolute favorite song by The Front Bottoms. 
I tabbed the lead guitar as well, 
but I have the lead mostly following the trumpet 
just in case you felt like it and all haha 

Rate, Comment, Enjoy =)

Intro:

e|--------------------------------------------------------------------|
B|--------------------------------------------------------------------|
G|--------------------------------------------------------------------|
D|----7----7------9-----9-9-----7---7---------------------------------|
A|--9-----9-----7------7-----5-----5----7-----77---4----4------5---55-|
E|-------------------------------------5-----5----2----2------4---4---|

e|--------------------------------------|
B|--------------------------------------|
G|--------------------------------------|
D|--------------------------------------|
A|----7--7---7--------------------------|
E|--5---5---5---5-----------------------|

Pre Verse: (x2)

Rhythm
e|--------------------------------------------------------------------------|
B|--------------------------------------------------------------------------|
G|--------------------------------------------------------------------------|
D|-7-7-77---9-99-999--7-7-77------------------------------------------------|
A|-9-9-99---7-77-777--5-5-55-7-77-777-4-4-44-7-77-777-7-7-7777-777-77-------|
E|---------------------------5-55-555-2-2-22-4-44-444-5-5-5555-555-55-------|

Lead (it's real quiet in the background)
e|---------------------44-------------------------------------------|
B|-----2~---5-2~-----2----5-2-5~-----2-55-2---2---3----3---3----33--|
G|-2-4----4------2-4-------------2-4--------4------6----6---6-----6~|
D|------------------------------------------------------------------|
A|------------------------------------------------------------------|
E|------------------------------------------------------------------|

Verse (x2)
(please fall asleep.......I need in my life)
Rhythm
e|--------------------------------------------------------------------------|
B|--------------------------------------------------------------------------|
G|--------------------------------------------------------------------------|
D|-7-7-77---9-99-999--7-7-77------------------------------------------------|
A|-9-9-99---7-77-777--5-5-55-7-77-777-4-4-44-7-77-777-7-7-7777-777-77-------|
E|---------------------------5-55-555-2-2-22-4-44-444-5-5-5555-555-55-------|

Pre-Chorus pt 1
(And it goes in.......lying on the ground)
Rhythm (x2)
e|--------------------------------------------|
B|--------------------------------------------|
G|--------------------------------------------|
D|--------------------------------------------|
A|--7-7-7777-7-7-7777-4-4-4444-7-7-7777-------|
E|--5-5-5555-4-4-4444-2-2-2222-4-4-4444-------|

Lead (follow trumpet)

e|-------------------------------------------------------------------------|
B|-22222222----5555-------------------22222222----5555/77777777-22222222-3~|
G|---------4444----222222222-1111/4444--------4444-------------------------|
D|-------------------------------------------------------------------------|
A|-------------------------------------------------------------------------|
E|-------------------------------------------------------------------------|

Pre-Chorus pt.2
(no vocals)
Rhythm
e|----------------------------|
B|----------------------------|
G|----------------------------|
D|--7-7-7777-7777777777777777-|
A|--5-5-5555-5555555555555555-|
E|----------------------------|

Chorus pt1
(and I....dog whistle)
Rhythm
e|------------------------------------|
B|------------------------------------|
G|------------------------------------|
D|--4444444444444444------------------|
A|--2222222222222222-2222222222222222-|
E|-------------------0000000000000000-|

Chorus pt2
(my bedroom.....yeah)
Rhythm
e|--------------------------------------------|
B|--------------------------------------------|
G|--------------------------------------------|
D|---------7------4--------------------7------|
A|--7------5(x16)-2(x16)-2-------7-----5(x16)-|
E|--5(x16)---------------0(x16)--5(x16)-------|

Lead (follow trumpet)
e|---------------------------2(x4)---------------------------------------|
B|-----5(x4)-2(x4)-----------------2(x4)---22------5(x4)-2(x4)-----------|
G|-2(x4)----------4(x4)-2(x4)------------55---2(x4)-----------4(x4)-2(x8)|
D|-----------------------------------------------------------------------|
A|-----------------------------------------------------------------------|
E|-----------------------------------------------------------------------|

e|----------------------------------------2(x4)----------|
B|------------------5(x4)-2(x4)----------------2(x4)--22-|
G|-1(x4)-4(x4)--2(x4)----------4(x4)-2(x4)----------55---|
D|-------------------------------------------------------|
A|-------------------------------------------------------|
E|-------------------------------------------------------|


Pre Verse: (x2)

Rhythm
e|--------------------------------------------------------------------------|
B|--------------------------------------------------------------------------|
G|--------------------------------------------------------------------------|
D|-7-7-77---9-99-999--7-7-77------------------------------------------------|
A|-9-9-99---7-77-777--5-5-55-7-77-777-4-4-44-7-77-777-7-7-7777-777-77-------|
E|---------------------------5-55-555-2-2-22-4-44-444-5-5-5555-555-55-------|

Lead (it's real quiet in the background)
e|---------------------44-------------------------------------------|
B|-----2~---5-2~-----2----5-2-5~-----2-55-2---2---3----3---3----33--|
G|-2-4----4------2-4-------------2-4--------4------6----6---6-----6~|
D|------------------------------------------------------------------|
A|------------------------------------------------------------------|
E|------------------------------------------------------------------|

Verse (x3)
(she says, "a lot"....."it's also all I need")
Rhythm
e|--------------------------------------------------------------------------|
B|--------------------------------------------------------------------------|
G|--------------------------------------------------------------------------|
D|-7-7-77---9-99-999--7-7-77------------------------------------------------|
A|-9-9-99---7-77-777--5-5-55-7-77-777-4-4-44-7-77-777-7-7-7777-777-77-------|
E|---------------------------5-55-555-2-2-22-4-44-444-5-5-5555-555-55-------|

Pre-Chorus pt 1
(And I can smell......."I was sorting somethings out")
Rhythm (x2)
e|--------------------------------------------|
B|--------------------------------------------|
G|--------------------------------------------|
D|--------------------------------------------|
A|--7-7-7777-7-7-7777-4-4-4444-7-7-7777-------|
E|--5-5-5555-4-4-4444-2-2-2222-4-4-4444-------|

Lead (follow trumpet)

e|-------------------------------------------------------------------------|
B|-22222222----5555-------------------22222222----5555/77777777-22222222-3~|
G|---------4444----222222222-1111/4444--------4444-------------------------|
D|-------------------------------------------------------------------------|
A|-------------------------------------------------------------------------|
E|-------------------------------------------------------------------------|

Pre-Chorus pt.2
(no vocals)
Rhythm
e|----------------------------|
B|----------------------------|
G|----------------------------|
D|--7-7-7777-7777777777777777-|
A|--5-5-5555-5555555555555555-|
E|----------------------------|

Chorus pt1
(and he will....dog whistle)
Rhythm
e|------------------------------------|
B|------------------------------------|
G|------------------------------------|
D|--4444444444444444------------------|
A|--2222222222222222-2222222222222222-|
E|-------------------0000000000000000-|

Chorus pt2
(my bedroom.....yeah)
Rhythm
e|--------------------------------------------|
B|--------------------------------------------|
G|--------------------------------------------|
D|---------7------4--------------------7------|
A|--7------5(x16)-2(x16)-2-------7-----5(x16)-|
E|--5(x16)---------------0(x16)--5(x16)-------|

Lead (follow trumpet)
e|---------------------------2(x4)---------------------------------------|
B|-----5(x4)-2(x4)-----------------2(x4)---22------5(x4)-2(x4)-----------|
G|-2(x4)----------4(x4)-2(x4)------------55---2(x4)-----------4(x4)-2(x8)|
D|-----------------------------------------------------------------------|
A|-----------------------------------------------------------------------|
E|-----------------------------------------------------------------------|

e|----------------------------------------2(x4)----------|
B|------------------5(x4)-2(x4)----------------2(x4)--22-|
G|-1(x4)-4(x4)--2(x4)----------4(x4)-2(x4)----------55---|
D|-------------------------------------------------------|
A|-------------------------------------------------------|
E|-------------------------------------------------------|

Chorus pt 3
(and I will read......out,out,out.)
Rhythm
e|-----------------------------------------------------|
B|-----------------------------------------------------|
G|-----------------------------------------------------|
D|--4444444444444444-7777777777777777------------------|
A|--2222222222222222-5555555555555555-7777777777777777-|
E|------------------------------------5555555555555555-|

Lead (follow trumpet)
e|----------------------4(x8)|
B|-2(x16)----5(x8)-2(x8)-----|
G|---------------------------|
D|---------------------------|
A|---------------------------|
E|---------------------------|

Outro(x5)
Rhythm
e|--------------------------------------------------------------------------|
B|--------------------------------------------------------------------------|
G|--------------------------------------------------------------------------|
D|-7-7-77---9-99-999--7-7-77------------------------------------------------|
A|-9-9-99---7-77-777--5-5-55-7-77-777-4-4-44-7-77-777-7-7-7777-777-77-------|
E|---------------------------5-55-555-2-2-22-4-44-444-5-5-5555-555-55-------|

Lead (it's real quiet in the background)
e|---------------------44-------------------------------------------|
B|-----2~---5-2~-----2----5-2-5~-----2-55-2---2---3----3---3----33--|
G|-2-4----4------2-4-------------2-4--------4------6----6---6-----6~|
D|------------------------------------------------------------------|
A|------------------------------------------------------------------|
E|------------------------------------------------------------------|
Tap to rate this tab
 
# A B C D E F G H I J K L M N O P Q R S T U V W X Y Z