Song name
# A B C D E F G H I J K L M N O P Q R S T U V W X Y Z

The Front Bottoms - Legit Tattoo Gun tab

-------------------------------------------------------------------------------
                            Legit Tattoo Gun - The Front Bottoms
-------------------------------------------------------------------------------
Tabbed by: Supersoakerman
E-mail: supersoakerman@gmail.com

Tuning: Standard

Intro/Verse      (My head has thoughts..)

e|-----------------------------------------------------------------------------|
B|-----------------------------------------------------------------------------|
G|-----------------------------------------------------------------------------|
D|-----0---0---0---0---0---0---0---0---0---0---0----0---0---0---0---0----------|
A|---2---2---2---4---5---5---5---5---9---9---9---12---7---7---7---7------------|
E|-----------------------------------------------------------------------------|

Prechorus

e|-----------------------------------------------------------------------------|
B|-----------------------------------------------------------------------------|
G|-----------------------------------------------------------------------------|
D|-----0---0---0----0---0---0---0---0---0---0---0---0---0---0---0--------------|
A|---5---5---5---10---9---9---9---9---3---3---3---3---2---2---2---2------------|
E|-----------------------------------------------------------------------------|



Chorus  (I am not a dirty god...)

e|-----------------------------------------------|
B|-----------------------------------------------|
G|-----------------------------------------------|
D|-------------7---8x----------------------------|
A|----5---16x--5------7---8x---------------------|
E|----3----------------5-------------------------|

Verse
Prechorus
Chorus

Bridge (I am the water...)

e|--------------------|
B|--------------------|
G|--------------------|
D|--7--9~~---5~-------|
A|--5--7~~---3~-------|
E|--------------------|


(But it still won't move..)

e|--------------------------------------|
B|--------------------------------------|
G|--------------------------------------|
D|------------5----------------2X-------|
A|-----7------3-----2----2--------------|
E|-----5------------0----0--------------|



(But I am not a dirty god..)

e|-------------------------------------|
B|-------------------------------------|
G|-------------------------------------|
D|----------------------5-----2X-------|
A|----5----5-----2------3--------------|
E|----3----3-----0---------------------|


Groovy Part

e|--------------------|
B|--------------------|
G|--------------------|
D|---------2~---------|
A|----2~---0~---------|
E|----0~--------------|


Chorus  (I am not a dirty god...)

e|-----------------------------------------------|
B|-----------------------------------------------|
G|------------------------------Last Chord-------|
D|-------------7---8x----------------------------|
A|----5---16x--5------7---8x------------5~-------|
E|----3----------------5-----------------3~------|




************************************
Tap to rate this tab
# A B C D E F G H I J K L M N O P Q R S T U V W X Y Z