Song name
# A B C D E F G H I J K L M N O P Q R S T U V W X Y Z

The Front Bottoms - Hooped Earings tab

-------------------------------------------------------------------------------
                            Hooped Earings - The Front Bottoms
-------------------------------------------------------------------------------
Tabbed by: Supersoakerman
E-mail: Supersoakerman@gmail.com

Tuning: Standard

Music Box Part during voicemail
e|----------------------------------------------------- --------------------------------|
B|--------------------------------------------------------------------------------------|
G|--------------------------------------------------------------------------------------|
D|----2---------5--2------------2------------------------------------2--3--2------------|
A|--3---3--2~----------3--2~------3--2-------5--3--2----------0--3-----------3--0-------|
E|---------------------------------------3~------------3~---1---------------------------|

e|----------------------------------------|
B|----------------------------------------|
G|----------------------------------------|
D|----------0--3--5~---3~---0~------------|
A|-------2--------------------------------|
E|---3------------------------------------|

Verse  "Come on give me a break.."
e|--------------------------------|
B|--------------------------------|
G|--------------------------------|
D|-----------7--------------------|
A|--4----2---5---7----------------|
E|--2----0-------5----------------|

Chorus
e|-------------------|
B|-------------------|
G|-------------------|
D|---5---------------|
A|---3---2---3---5---|
E|-------0---1---3---|

Verse
Chorus

Transition
e|----------------|
B|----------------|
G|----------------|
D|-----7----------|
A|-----9----------|
E|----------------|


Synth Part
e|-------------------------------------|
B|-------------------------------------|
G|-------------------------------------|
D|----5-----5-------/9---5-------------|
A|-------7------7-----------7----------|
E|-------------------------------------|

Both parts of Break
e|--------------------|
B|--------------------|
G|--------------------|
D|--2--5--------------|
A|--0--3--2--2--------|
E|--------0--0--------|

Chorus
e|----------------|
B|----------------|
G|----------------|
D|--5-------------|
A|--3--2--3--5----|
E|-----0--1--3----|


Last Chord
e|------------------|
B|------------------|
G|------------------|
D|--5~--55----------|
A|--3~--33----------|
E|------------------|
Tap to rate this tab
# A B C D E F G H I J K L M N O P Q R S T U V W X Y Z