Song name
# A B C D E F G H I J K L M N O P Q R S T U V W X Y Z

The Front Bottoms - Twin Size Mattress tab

First single of their new album.
This should be the majority of the song and fairly accurate.
Enjoy.

Intro:
e|-----------|
b|-----------|
g|-----------|
d|----9---9--|
a|-----------|
E|--0---0----|

Verse Part 1:
"This is for the lions..."
e|--------------------------------------------------------------------|
b|--------------------------------------------------------------------|
g|--------------------------------------------------------------------|
d|----9---9---9---9---9---9---9---9---9---9---9---9---9---9---9---9---|
a|------------------6---6---6---6---7---7---7---7---0---0---0---0-----|
E|--0---0---0---0-----------------------------------------------------|

Verse Part 2:
"But I will help you swim..."
e|--------------------------------------------------------------------|
b|--------------------------------------------------------------------|
g|--------------------------------------------------------------------|
d|----6---6---6---6---6---6---6---6---6---6---6---6---6---6---6---6---|
a|--4---4---0---0---4---4---0---0---4---4---0---0---4---4---0---0-----|
E|--------------------------------------------------------------------|

e|-----------|
b|-----------|
g|-----------|
d|----9---9--|
a|-----------|
E|--0---0----|

Lead Part 1:
e|-----------|
b|-----------|
g|--9~---9~--|
d|-----------|
a|--7~---7~--|
E|-----------|

Verse Part 1:
"It's for the snakes..."
e|--------------------------------------------------------------------|
b|--------------------------------------------------------------------|
g|--------------------------------------------------------------------|
d|----9---9---9---9---9---9---9---9---9---9---9---9---9---9---9---9---|
a|------------------6---6---6---6---7---7---7---7---0---0---0---0-----|
E|--0---0---0---0-----------------------------------------------------|

Verse Part 2:
"It's no big surprise..."
e|--------------------------------------------------------------------|
b|--------------------------------------------------------------------|
g|--------------------------------------------------------------------|
d|----6---6---6---6---6---6---6---6---6---6---6---6---6---6---6---6---|
a|--4---4---0---0---4---4---0---0---4---4---0---0---4---4---0---0-----|
E|--------------------------------------------------------------------|

Lead Part:
e|---------------|
b|------7-----9--|
g|---9-----9-----|
d|---------------|
a|---------------|
E|---------------|

Verse Part 3:
"With tears in my eyes..."
e|------------------------|
b|------------------------|
g|------------------------|
d|---6~---6~---6~---6~----|
a|---4~---0~---4~---0~----|
E|------------------------|

"You sai hey man i love you..."
e|--------------------------------------------------------------------|
b|--------------------------------------------------------------------|
g|--------------------------------------------------------------------|
d|----6---6---6---6---6---6---6---6---6---6---6---6---6---6---6---6---|
a|--4---4---0---0---4---4---0---0---4---4---0---0---4---4---0---0-----|
E|--------------------------------------------------------------------|

Chorus:
"I'm sure we could find..."
e|----------------------------------------------------------------------|
b|----------------------------------------------------------------------|
g|----------------------------------------------------------------------|
d|--2-2-2-2-2-2-2-2--6-6-6-6-6-6-6-6--7-7-7-7-7-7-7-7--4-4-4-4-4-4-4-4--|
a|--2-2-2-2-2-2-2-2--6-6-6-6-6-6-6-6--7-7-7-7-7-7-7-7--4-4-4-4-4-4-4-4--|
E|--0-0-0-0-0-0-0-0--4-4-4-4-4-4-4-4--5-5-5-5-5-5-5-5--2-2-2-2-2-2-2-2--|

"Maybe shake a tambourine..."
e|----------------------------------------------------------|
b|----------------------------------------------------------|
g|----------------------------------------------------------|
d|--2-2-2-2-2-2-2-2--6-6-6-6-6-6-6-6--7-7-7-7-7-7-7-7--4~---|
a|--2-2-2-2-2-2-2-2--6-6-6-6-6-6-6-6--7-7-7-7-7-7-7-7--4~---|
E|--0-0-0-0-0-0-0-0--4-4-4-4-4-4-4-4--5-5-5-5-5-5-5-5--2~---|

Lead part:
e|-----------7--9--11--9-11-9--7-----------7--11--9---11--12--16---|
b|-----7--9--------------------------7--9--------------------------|
g|--9------------------------------9-------------------------------|
d|-----------------------------------------------------------------|
a|-----------------------------------------------------------------|
E|-----------------------------------------------------------------|

*Repeat verse with strumming instead of picking*

Lead Verse Part 1: All palm muted
e|-------------------------------------|
b|-----7---7---7---7---9---9---9---9---|
g|---9---9---9---9---9---9---9---9-----|
d|-------------------------------------|
a|-------------------------------------|
E|-------------------------------------|

Lead Verse Part 2:
e|---------------|
b|------7-----9--|
g|---9-----9-----|
d|---------------|
a|---------------|
E|---------------|

Bridge:
"I wanna contribute to the chaos..."
e|----------------------------------------------------------------------|
b|----------------------------------------------------------------------|
g|----------------------------------------------------------------------|
d|--2-2-2-2-2-2-2-2--6-6-6-6-6-6-6-6--7-7-7-7-7-7-7-7--4-4-4-4-4-4-4-4--|
a|--2-2-2-2-2-2-2-2--6-6-6-6-6-6-6-6--7-7-7-7-7-7-7-7--4-4-4-4-4-4-4-4--|
E|--0-0-0-0-0-0-0-0--4-4-4-4-4-4-4-4--5-5-5-5-5-5-5-5--2-2-2-2-2-2-2-2--|

Lead part:
e|-----------7--9--11--9-11-9--7-----------7--11--9---11--12--16---|
b|-----7--9--------------------------7--9--------------------------|
g|--9------------------------------9-------------------------------|
d|-----------------------------------------------------------------|
a|-----------------------------------------------------------------|
E|-----------------------------------------------------------------|

Bridge 2:
e|----------------------------------------------------------------------|
b|----------------------------------------------------------------------|
g|-----------------------------------6-6-6-6-6-6-6-6--------------------|
d|--2-2-2-2-2-2-2-2-2-2-2-2-2-2-2-2--6-6-6-6-6-6-6-6--7-7-7-7-7-7-7-7---|
a|--2-2-2-2-2-2-2-2-2-2-2-2-2-2-2-2--4-4-4-4-4-4-4-4--7-7-7-7-7-7-7-7---|
E|--0-0-0-0-0-0-0-0-0-0-0-0-0-0-0-0-------------------5-5-5-5-5-5-5-5---|


Outro:
e|--------------------------------------|
b|--------------------------------------|
g|--------------------------------------|
d|----9---9---9---9---9---9---9---9-9~--|
a|--------------------------------------|
E|--0---0---0---0---0---0---0---0---0~--|


Feed back & corrections are much appreciated
Tap to rate this tab
# A B C D E F G H I J K L M N O P Q R S T U V W X Y Z