Song name
# A B C D E F G H I J K L M N O P Q R S T U V W X Y Z

The Front Bottoms - Rhode Island tab

The Front Bottoms: "Rhode Island"
Tabbed by: aukes57

Intro/Verse (played 3 times before vocals come in)
E|-------------------------------------|
B|-------------------------------------|
G|-------------------------------------|
D|-10-10-10-9-9-9--5-5-5-5-5-5-5-5-5-5-|
A|-8--8--8--7-7-7--3-3-3-3-3-3-3-3-3-3-|
E|-------------------------------------|

"And Mora cut her hair..."
E|------|
B|------|
G|------|
D|------|
A|--7~--|
E|--5~--|

E|-------------------------------------|
B|-------------------------------------|
G|-------------------------------------|
D|-10-10-10-9-9-9--5-5-5-5-5-5-5-5-5-5-|
A|-8--8--8--7-7-7--3-3-3-3-3-3-3-3-3-3-|
E|-------------------------------------|x2

"I watched her sitting by herself..."
E|------|
B|------|
G|------|
D|------|
A|--7~--|
E|--5~--|

E|-------------------------------------|
B|-------------------------------------|
G|-------------------------------------|
D|-10-10-10-9-9-9--5-5-5-5-5-5-5-5-5-5-|
A|-8--8--8--7-7-7--3-3-3-3-3-3-3-3-3-3-|
E|-------------------------------------|x2

Pre-Chorus
E|-------------------------------|
B|-------------------------------|
G|-------------------------------|
D|-10-10-10-10-10-10-12-12-12-12-|
A|-8--8--8--8--8--8--10-10-10-10-|
E|-------------------------------|

Chorus
"Casanova just can't turn the charm on.."
E|---------------------------------------|
B|---------------------------------------|
G|---------------------------------------|
D|-10-10-10-12-12-12-5-5-5-5-5-5-5-5-5-5-|
A|-8--8--8--10-10-10-3-3-3-3-3-3-3-3-3-3-|
E|---------------------------------------|

"I know these women if he don't wanna do it.."
E|---------------------------------------|
B|---------------------------------------|
G|---------------------------------------|
D|-10-10-10-12-12-12-5-5-5-5-5-3-3-3-3-3-|
A|-8--8--8--10-10-10-3-3-3-3-3-1-1-1-1-1-|
E|---------------------------------------|

"You can never tell..."

E|--------|
B|--------|
G|--------|
D|--10-12-|
A|--8--10-|
E|--------|

Repeat everything up to this point for second verse

Bridge before final chorus

E|--------------------------|
B|--------------------------|
G|--------------------------|
D|--10-9-7-5-----5-7-9-10---|
A|--8--7-5-3-----3-5-7-8----|
E|--------------------------|

Something like this, you'll pickup on the chord changes.

Then back into the chorus.
Tap to rate this tab
# A B C D E F G H I J K L M N O P Q R S T U V W X Y Z