Song name
# A B C D E F G H I J K L M N O P Q R S T U V W X Y Z

The Front Bottoms - Current Events tab

E | --------------------|
B | --------------------|
G | --------------------|
D | ------9-9--6-6--6-6-|
A | -9-9--7-7--4-4--6-4-|
e | -7-7----------------| x6

E | -------------------|
B | -------------------|
G | -------------------|
D | -------9 x8--6 x16-|
A | -9 x8--7-----4-----|
e | -7-----------------| x4

E | --------------------|
B | --------------------|
G | --------------------|
D | ------9-9--6-6--6-6-|
A | -9-9--7-7--4-4--6-4-|
e | -7-7----------------| x6

E | -------------------|
B | -------------------|
G | -------------------|
D | -------9 x8--6 x16-|
A | -9 x8--7-----4-----|
e | -7-----------------| x4

E | ------------------------|
B | ------------------------|
G | ------------------------|
D | -7 x8--4 x8--2 x8--5 x8-|
A | -5-----2-----0-----3----|
e | ------------------------| x6

On the last 5/3, strum 16 times


E | --------------------|
B | --------------------|
G | --------------------|
D | ------9-9--6-6--6-6-|
A | -9-9--7-7--4-4--6-4-|
e | -7-7----------------| x3
Tap to rate this tab
# A B C D E F G H I J K L M N O P Q R S T U V W X Y Z