Song name
# A B C D E F G H I J K L M N O P Q R S T U V W X Y Z

The Front Bottoms - Back Flip tab

Artist: The Front Bottoms
Song: "Back Flip"
Album: Talon of the Hawk
Tabbed by: aukes57

Intro
E|----------|
B|----------|
G|----------|
D|-4--------| x4
A|-2--2--4--|
E|----0--2--|

Verse part 1
"I don't see me mad at situations..."
E|----------|
B|----------|
G|----------|
D|-4--------| x3
A|-2--2--4--|
E|----0--2--|

Verse part 2
"...probably regret one day..."
E|-------------|
B|-------------|
G|-------------|
D|-4--9--4--9--|
A|-2--7--2--7--|
E|-------------|

Repeat first part of verse but play this for the second part
"...a safety pin and a ballpoint pen..."
E|----------------------|
B|----------------------|
G|----------------------|
D|-4--9--4--9--4--------|
A|-2--7--2--7--2--4--2--|
E|----------------2--0--|

Chorus
"And there are answers here..."
E|----------|
B|----------|
G|----------|
D|-9--4-----| x2
A|-7--2--4--|
E|-------2--|

"And there is nothing wrong with my lifestyle..."
E|-----------------------|
B|-----------------------|
G|-----------------------|
D|-9--4---------9--4-----|
A|-7--2--4--6---7--2--4--|
E|-------2--4---------2--|

Repeat Intro
E|----------|
B|----------|
G|----------|
D|-4--------| x4
A|-2--2--4--|
E|----0--2--|

Verse part 1
"One day I'll realize I don't need this..."
E|----------|
B|----------|
G|----------|
D|-4--------| x3
A|-2--2--4--|
E|----0--2--|

Verse part 2
"...I will try to feel all the effects..."
E|-------------|
B|-------------|
G|-------------|
D|-4--9--4--9--|
A|-2--7--2--7--|
E|-------------|

Repeat first part of verse but play this for the second part
"...my side of the story the best that you could..."
E|----------------------|
B|----------------------|
G|----------------------|
D|-4--9--4--9--4--------|
A|-2--7--2--7--2--4--2--|
E|----------------2--0--|

Chorus
"But there are answers here..."
E|----------|
B|----------|
G|----------|
D|-9--4-----| x2
A|-7--2--4--|
E|-------2--|

"And there is nothing wrong with you're lifestyle..."
E|-----------------------|
B|-----------------------|
G|-----------------------|
D|-9--4---------9--4-----|
A|-7--2--4--6---7--2--4--|
E|-------2--4---------2--|

Bridge
"And this is how the cool boyfriend..."
E|------------|
B|------------|
G|------------|
D|------------| x4
A|--7------9--|
E|----9--7----|

Outro
"I'll move to florida..."
E|-------------|
B|-------------|
G|-------------|
D|-4--9--------| x4
A|-2--7--4--2--|
E|-------2--0--|

Repeat Intro

Lyrics
I don't see me mad at situations, I see me turn and walk away
I see a tattoo on my right thigh that I will probably regret one day
Yeah, I will probably regret one day
But now, I am happy to be bonding in a kitchen with my friends
A spool of thread, a few more good vibes, a safety pin and a ballpoint pen
A safety pin and a ballpoint pen
A safety pin and a ballpoint pen
And a ballpoint pen

But there are answers here, they're just harder to figure out
Since all your questions got harder to dodge and dip around
And there is nothing wrong with my lifestyle
No matter how many times I tell myself to breathe in, hold it, hold it, now let it out, 
now let it out

One day I will realize I don't need this because it is just not who I am
Until that day comes, I'll keep my eyes closed, and I will try to feel all of the effects
Yeah, I will try to feel all of the effects
And now I am talking way too fast and a little bit louder than I should,
Trying to say thank you for understanding my side of the story the best that you could
My side of the story the best that you could
My side of the story the best that you could
The best that you could

But there are answers here, they're just harder to figure out
Since all your questions got harder to dodge and dip around
And there is nothing wrong with your lifestyle
No matter how many times they tell themselves just breathe in, hold it, hold it, now let 
it out

And this is how the cool boyfriend sits in the passenger seat of his girlfriend's car
He's lookin' at me, I wish the light would turn green, set me free, oh set me free, oh 
set me
Teach my rolling veins where there's a will, there is a way
Just cut me open, let me drain, oh let me drain, oh let me drain, oh let me

I'll move to Florida, and I'll buy a brand new pick-up truck
And I'll tint all the windows including the driver's side
Now you can't see me, so you can't touch me
When I sit at the red light and watch your boyfriend wonder if I'm inside
If I am dead inside
Tap to rate this tab
# A B C D E F G H I J K L M N O P Q R S T U V W X Y Z