Song name
# A B C D E F G H I J K L M N O P Q R S T U V W X Y Z

The Front Bottoms - Funny You Should Ask tab

First tab for me yay


Intro Lead:
E|----------------------------------------------------------|
B|--13--12--10--8--10--8--5--6--8--13--12--10--8--10--8--8--|
G|----------------------------------------------------------|
D|----------------------------------------------------------|
A|----------------------------------------------------------|
E|----------------------------------------------------------|



E|----------------------------------------------------|
B|--13--12--10--8--10--8--5--6--8--13--12--10--12b13--|
G|----------------------------------------------------|
D|----------------------------------------------------|
A|----------------------------------------------------|
E|----------------------------------------------------|


Intro and Verse:
E|--------------|
B|--------------|
G|--------------|
D|--5-----------|
A|--3--7--2--3--|
E|-----5--0--1--|


"She said Honey y'gotta learn.."
E|-----------|
B|-----------|
G|-----------|
D|-----------|
A|--3--5--7--|
E|--1--3--5--|

Chorus:
E|--------------|
B|--------------|
G|--------------|
D|--5--------7--|
A|--3--2--5--5--|
E|-----0--3-----|


"1,2,3 everyone say cheese..."
E|-------------------------------------------------|
B|-------------------------------------------------|
G|--9--10--12--14--17--16--19--16--17--17--16--14--|
D|-------------------------------------------------|
A|--7--8---10--12--15--14--17--14--15--15--14--12--|
E|-------------------------------------------------|


Chorus

Outro:
Repeat Intro Lead with these chords underneath instead
E|--------------|
B|--------------|
G|--------------|
D|--5-----------|
A|--3--2--3--5--|
E|-----0--1--3--|

End on

E|-----|
B|-----|
G|-----|
D|--5--|
A|--3--|
E|-----|
Tap to rate this tab
 
# A B C D E F G H I J K L M N O P Q R S T U V W X Y Z