Song name
# A B C D E F G H I J K L M N O P Q R S T U V W X Y Z

The Front Bottoms - Skeleton tab

Intro
E|------------|                         
B|------------|             
G|------------|            
D|-5----------| x2       
A|-3--2--3--5-|            
E|----0--1--3-|             

Verse
E|------------|                             
B|------------|                
G|------------|              
D|-5----------| x2         
A|-3--2--3--5-|              
E|----0--1--3-|                

E|------------|                          
B|------------|              
G|------------|               
D|------------|          
A|-3-----5----|               
E|-1-----3----|  

Pre-Chorus " You are the pain I feel..."
E|------------|             
B|------------|
G|------------|
D|----5-------| 
A|-2--3--3--5-|
E|-0-----1--3-|   

Chorus "I got so stoned..."
E|------------|             
B|------------|
G|------------|
D|----5-----3-| x2
A|-3--3--5--1-|
E|-1-----3----|   

Post-Chorus "Come on baby calm me down..."
E|---------------|             
B|---------------|
G|---------------|
D|-10--5---------| 
A|-8---3--7--5--3|
E|--------5--3--1| 

Bridge "I've got miles to go..."
E|---------------|             
B|---------------|
G|---------------|
D|---------------| 
A|-7--5--7--5--3-|
E|-5--3--5--3--1-| 

E|------------|                          
B|------------|              
G|------------|               
D|------------|          
A|-3-----5----|               
E|-1-----3----| 
Tap to rate this tab
# A B C D E F G H I J K L M N O P Q R S T U V W X Y Z