Song name
# A B C D E F G H I J K L M N O P Q R S T U V W X Y Z

The Front Bottoms - Au Revoir tab

                       The Front Bottoms - Au Revoir
Tabbed by Vin1997
The Front Bottoms - Au Revoir (Talon of the Hawk)
Track 01

~ =let note/chord ring out
Tuning: Standard
The rhythm for this song is 1234, 1234. So play each note/chord 8 times, then switch.


 "You know what I think's really sad...Right before she walks away I'm pretty..."
e|---------------------------------------------------------------------------|
B|---------------------------------------------------------------------------|
G|---------------------------------------------------------------------------|
D|---------------------------------------------------------------------------|
A|-----------------7-7-7-7-7-7-7-7-----------------5-5-5-5-5-5-5-5-----------|x6
E|-5-5-5-5-5-5-5-5-----------------7-7-7-7-7-7-7-7---------------------------|

 "Adios, adios. I bet you think I dont know what that means..."
e|---------------------------------------------------------------------------|
B|---------------------------------------------------------------------------|
G|---------------------------------------------------------------------------|
D|---------------------------------------------------------------------------|
A|-----------------7-7-7-7-7-7-7-7-----------------5-5-5-5-5-5-5-5-----------|x2
E|-5-5-5-5-5-5-5-5-----------------7-7-7-7-7-7-7-7---------------------------|

 "Rock n roll, rock n roll, you probably...Au revoir you probably don't...."
e|---------------------------------------------------------------------------|
B|---------------------------------------------------------------------------|
G|-----------------9-9-9-9-9-9-9-9-----------------7-7-7-7-7-7-7-7-----------|
D|-7-7-7-7-7-7-7-7-9-9-9-9-9-9-9-9-9-9-9-9-9-9-9-9-7-7-7-7-7-7-7-7-----------|
A|-7-7-7-7-7-7-7-7-7-7-7-7-7-7-7-7-9-9-9-9-9-9-9-9-5-5-5-5-5-5-5-5-----------|x5
E|-5-5-5-5-5-5-5-5-----------------7-7-7-7-7-7-7-7---------------------------|

  Solo
e|---------------------------------------------------------------------------|
B|---------------------------------------------------------------------------|
G|---------------------------------------------------------------------------|
D|-7-------------------------------------------------------------------------|
A|-7-------------------------------------------------------------------------|x16
E|-5-------------------------------------------------------------------------|

e|---------------------------------------------------------------------------|
B|---------------------------------------------------------------------------|
G|---------------------------------------------------------------------------|
D|---------------------------------------------------------------------------|
A|-----------------7-7-7-7-7-7-7-7-----------------5-5-5-5-5-5-5-5-----------|
E|-5-5-5-5-5-5-5-5-----------------7-7-7-7-7-7-7-7-----------------5~~~~~~~--|



These guys are really good.
Check out more of their stuff @ thefrontbottoms.com
Tap to rate this tab
 
# A B C D E F G H I J K L M N O P Q R S T U V W X Y Z