Song name
# A B C D E F G H I J K L M N O P Q R S T U V W X Y Z

The Front Bottoms - Legit Tattoo Gun tab

Intro
E----------------------------------|
B----------------------------------|
G----------------------------------| X2
D--0-0-0-0-0-0-0-0-0-0-0--0-0-0-0-0|
A-2-2-2-4-5-5-5-5-9-9-9-12-7-7-7-7-|
E----------------------------------|

'My head has thoughts...'
E----------------------------------|
B----------------------------------|
G----------------------------------| X5
D--0-0-0-0-0-0-0-0-0-0-0--0-0-0-0-0|
A-2-2-2-4-5-5-5-5-9-9-9-12-7-7-7-7-|
E----------------------------------|

E----------------------------------|
B----------------------------------|
G----------------------------------|
D--0-0-0--0-0-0-0-0-0-0-0-0-0-0-0-0|
A-5-5-5-10-9-9-9-9-3-3-3-3-2-2-2-2-|
E----------------------------------|


'I am not a dirty god...'
E---------------------------------|
B---------------------------------|
G---------------------------------| X4
D-----------------77777777--------|
A-55555555555555555555555577777777|
E-3333333333333333--------55555555|


Interlude
E----------------------------------|
B----------------------------------|
G----------------------------------| X2
D--0-0-0-0-0-0-0-0-0-0-0--0-0-0-0-0|
A-2-2-2-4-5-5-5-5-9-9-9-12-7-7-7-7-|
E----------------------------------|

'Who did I think I was...'
E----------------------------------|
B----------------------------------|
G----------------------------------| X3
D--0-0-0-0-0-0-0-0-0-0-0--0-0-0-0-0|
A-2-2-2-4-5-5-5-5-9-9-9-12-7-7-7-7-|
E----------------------------------|

E----------------------------------|
B----------------------------------|
G----------------------------------|
D--0-0-0--0-0-0-0-0-0-0-0-0-0-0-0-0|
A-5-5-5-10-9-9-9-9-3-3-3-3-2-2-2-2-|
E----------------------------------|


Bridge (piano part tabbed for guitar)
E---------------------------------|
B---------------------------------|
G---------------------------------| X2
D-7~~~9~~~~~~~~~~~5~~~~~~~~~~~~~~~|
A-5~~~7~~~~~~~~~~~3~~~~~~~~~~~~~~~|
E---------------------------------|

'I am the water...'
E---------------------------------|
B---------------------------------|
G---------------------------------| X3
D-7~~~9~~~~~~~~~~~5~~~~~~~~~~~~~~~|
A-5~~~7~~~~~~~~~~~3~~~~~~~~~~~~~~~|
E---------------------------------|

'But it still won't move...'
E---------------------------------|
B---------------------------------|
G---------------------------------| X2
D---------55555555----------------|
A-77777777333333332222222222222222|
E-55555555--------0000000000000000|


'But, I am not a dirty god...'
E---------------------------------|
B---------------------------------|
G---------------------------------| X2
D-----------------77777777--------|
A-55555555555555555555555577777777|
E-3333333333333333--------55555555|


Bridge
E---------------------------------|
B---------------------------------|
G---------------------------------| X2
D---------------------------------|
A-22222222222222227777777777777777|
E-00000000000000005555555555555555|

'Keep my body alive...'
E---------------------------------|
B---------------------------------|
G---------------------------------| X2
D---------------------------------|
A-22222222222222227777777777777777|
E-00000000000000005555555555555555|


'But, I am not a dirty god...'
E---------------------------------|
B---------------------------------|
G---------------------------------| X4
D-----------------77777777--------|
A-55555555555555555555555577777777|
E-3333333333333333--------55555555|
Tap to rate this tab
 
# A B C D E F G H I J K L M N O P Q R S T U V W X Y Z