Song name
# A B C D E F G H I J K L M N O P Q R S T U V W X Y Z

The Front Bottoms - Swimming Pool tab

'There's comfort in the bottom of a swimming pool...'
E-------------------------------------|
B-------------------------------------|
G-------------------------------------|
D-------------------------------------|
A--11-11-11-11-7-7-9-9-7-7-7-7-7-7-7-7|
E-9--9--0--0--5-5-7-7-4-4-4-4-5-5-5-5-|

'There's no doubt in my mind...'
E-----------------------------------------------------|
B-----------------------------------------------------|
G-----------------------------------------------------|
D-----------------------------------------------------|
A--11-11-11-11-7-7-9-9-7-7-7-7-7-7-7-7-7-7-7-7-7-7-7-7|
E-9--9--0--0--5-5-7-7-4-4-4-4-4-4-4-4-5-5-5-5-5-5-5-5-|

E---------------------|
B---------------------|
G---------------------| X2
D---------------------|
A--11-11-11-11-7-7-9-9|
E-9--9--0--0--5-5-7-7-|

'There's comfort in the bottom of a swimming pool...'
E-------------------------------------|
B-------------------------------------|
G-------------------------------------|
D-------------------------------------|
A--11-11-11-11-7-7-9-9-7-7-7-7-7-7-7-7|
E-9--9--0--0--5-5-7-7-4-4-4-4-5-5-5-5-|

'There's no doubt in my mind...'
E-----------------------------------------------------|
B-----------------------------------------------------|
G-----------------------------------------------------|
D-----------------------------------------------------|
A--11-11-11-11-7-7-9-9-7-7-7-7-7-7-7-7-7-7-7-7-7-7-7-7|
E-9--9--0--0--5-5-7-7-4-4-4-4-4-4-4-4-5-5-5-5-5-5-5-5-|


'I'm a creature of a culture that I create...'
E---------------------------------|
B---------------------------------|
G---------------------------------| X2
D---------------------------------|
A--4-4-4-4-6-6-7-7-2-2-2-2-2-2-2-2|
E-2-2-2-2-4-4-5-5-0-0-0-0-0-0-0-0-|

'And I am permanently...'
E---------------------------------|
B---------------------------------|
G---------------------------------| X2
D---------------------------------|
A-44444444666677772222222222222222|
E-22222222444455550000000000000000|


E---------------------|
B---------------------|
G---------------------| X2
D---------------------|
A--11-11-11-11-7-7-9-9|
E-9--9--0--0--5-5-7-7-|

Guitar fades out then comes back at around 1:38

'Follow an orange extention chord...'
E-------------------------------------|
B-------------------------------------|
G-------------------------------------|
D-------------------------------------|
A--11-11-11-11-7-7-9-9-7-7-7-7-7-7-7-7|
E-9--9--0--0--5-5-7-7-4-4-4-4-5-5-5-5-|

'Feeding the black light...'
E-----------------------------------------------------|
B-----------------------------------------------------|
G-----------------------------------------------------|
D-----------------------------------------------------|
A--11-11-11-11-7-7-9-9-7-7-7-7-7-7-7-7-7-7-7-7-7-7-7-7|
E-9--9--0--0--5-5-7-7-4-4-4-4-4-4-4-4-5-5-5-5-5-5-5-5-|


'But I'm a creature of a culture that I create...'
E---------------------------------|
B---------------------------------|
G---------------------------------| X2
D---------------------------------|
A--4-4-4-4-6-6-7-7-2-2-2-2-2-2-2-2|
E-2-2-2-2-4-4-5-5-0-0-0-0-0-0-0-0-|

'And I am permanently...'
E---------------------------------|
B---------------------------------|
G---------------------------------| X2
D---------------------------------|
A-44444444666677772222222222222222|
E-22222222444455550000000000000000|


Bridge
E-----------------|
B-----------------|
G-----------------| X2
D--6-6-6-6-6-6-2-2|
A-7-7-6-6-4-4-0-0-|
E-----------------|

'How low is your self-esteem...'
E-----------------|
B-----------------|
G-----------------| X3
D--6-6-6-6-6-6-2-2|
A-7-7-6-6-4-4-0-0-|
E-----------------|

E-----------------|
B-----------------|
G-----------------|
D-2222444466667777|
A-0000000000000000|
E-----------------|

'I will stop cutting my pants into shorts...'
E-----------------|
B-----------------|
G-----------------| X4
D-6666666666662222|
A-7777666644440000|
E-----------------|

E-------------------------|
B-------------------------|
G-------------------------|
D-2222444466667777~~~~~~~~|
A-0000000000000000~~~~~~~~|
E-------------------------|

Voicemail plays for a little and guitar comes back in at 3:14

Grand Finale
E---------------------------------|
B---------------------------------|
G---------------------------------| X2
D-2222222222222222----------------|
A-22222222222222224444444466667777|
E-00000000000000002222222244445555|

'There's comfort in the bottom of a swimming pool!'
E-------------------------|
B-------------------------|
G-------------------------|
D-------------------------|
A-11111111111111117~~~~~~~|
E-9-9-9-9-0-0-0-0-5~~~~~~~|
Tap to rate this tab
# A B C D E F G H I J K L M N O P Q R S T U V W X Y Z