Song name
# A B C D E F G H I J K L M N O P Q R S T U V W X Y Z

The Front Bottoms - Skeleton tab

Intro
E---------------------------------|
B---------------------------------|
G---------------------------------| X2
D-5-5-5-5-5-5-5-------------------|
A-3-3-3-3-3-3-32-2333-3-3-5-5-5-5-|
E--------------0-0111-1-1-3-3-3-3-|


'I walked around like a skeleton last night...'
E---------------------------------|
B---------------------------------|
G---------------------------------| X2
D-55555555555555------------------|
A-333333333333332-3333333355555555|
E---------------0-1111111133333333|


E-----------------|
B-----------------|
G-----------------|
D-----------------|
A-3333333355555555|
E-1111111133333333|


'I walked around like a skeleton last night...'
E---------------------------------|
B---------------------------------|
G---------------------------------| X2
D-55555555555555------------------|
A-333333333333332-3333333355555555|
E---------------0-1111111133333333|


E-----------------|
B-----------------|
G-----------------|
D-----------------|
A-3333333355555555|
E-1111111133333333|


'You are the pain I feel...'
E-------------------------------------------------|
B-------------------------------------------------|
G-------------------------------------------------|
D---------5~~-55~---------------------------------|
A-2~~-22~-3~~-33~-3~~-33~-3~~-33~-5~~-55~-33322222|
E-0~~-00~---------1~~-11~-1~~-11~-3~~-33~-11100000|


'I got so stoned...'
E-------------------------------------------------|
B-------------------------------------------------|
G-------------------------------------------------| X2
D-----------------5555555555555555----------------|
A-333333333333333333333333333333335555555588877777|
E-1111111111111111----------------3333333366655555|


E-----------------|
B-----------------|
G-----------------|
D-----------------|
A-3333333333333333|
E-1111111111111111|


'Come on baby calm me down...'
E--------------------------------------------|
B--------------------------------------------|
G--------------------------------------------|
D-10~1010~10105~55~55------------------------|
A-8-~8-8-~8-8-3~33~33777775--3~~~~~~~~~~~~~--|
E--------------------555553--1~~~~~~~~~~~~~--|


'Reunited and it feels so good...'
E---------------------------------|
B---------------------------------|
G---------------------------------| X2
D-55555555555555------------------|
A-333333333333332-3333333355555555|
E---------------0-1111111133333333|


E-----------------|
B-----------------|
G-----------------|
D-----------------|
A-3333333355555555|
E-1111111133333333|


'By the way she's shaking her head...'
E-------------------------------------------------|
B-------------------------------------------------|
G-------------------------------------------------|
D---------5~~-55~---------------------------------|
A-2~~-22~-3~~-33~-3~~-33~-3~~-33~-5~~-55~-33322222|
E-0~~-00~---------1~~-11~-1~~-11~-3~~-33~-11100000|


'I'm gonna go get so stoned...'
E-------------------------------------------------|
B-------------------------------------------------|
G-------------------------------------------------| X2
D-----------------5555555555555555----------------|
A-333333333333333333333333333333335555555588877777|
E-1111111111111111----------------3333333366655555|


E-----------------|
B-----------------|
G-----------------|
D-----------------|
A-3333333333333333|
E-1111111111111111|


'Come on baby calm me down...'
E--------------------------------------------|
B--------------------------------------------|
G--------------------------------------------|
D-10~1010~10105~55~55------------------------|
A-8-~8-8-~8-8-3~33~33777775~-3~~~~~~~333333--|
E--------------------555553~-1~~~~~~~111111--|


'I've got miles to go...'
E---------------------------------------------------------|
B---------------------------------------------------------|
G---------------------------------------------------------|
D-----------------------------------------5~~~------------|
A-77777777555555557777777755555555333333333~~~------------|
E-5555555533333333555555553333333311111111----------------|


E---------------------------------|
B---------------------------------|
G---------------------------------|
D---------------------------------|
A-33333333333333335555555533322222|
E-11111111111111113333333311100000|


'I got so stoned...'
E-------------------------------------------------|
B-------------------------------------------------|
G-------------------------------------------------|
D-----------------5555555555555555----------------|
A-3~~~~~~~~~~~~~~~33333333333333335555555588877777|
E-1~~~~~~~~~~~~~~~----------------3333333366655555|


E-------------------------------------------------|
B-------------------------------------------------|
G-------------------------------------------------| X2
D-----------------5555555555555555----------------|
A-333333333333333333333333333333335555555588877777|
E-1111111111111111----------------3333333366655555|


E-----------------|
B-----------------|
G-----------------|
D-----------------|
A-3~~~~~~~~~~~~~~~|
E-1~~~~~~~~~~~~~~~|


Outro
E---------------------------------|
B---------------------------------|
G---------------------------------| X2
D-5-5-5-5-5-5-5-------------------|
A-3-3-3-3-3-3-32-2333-3-3-5-5-5-5-|
E--------------0-0111-1-1-3-3-3-3-|


E-----------------|
B-----------------|
G-----------------|
D-5~~~~~~~~~~~~~~~|
A-3~~~~~~~~~~~~~~~|
E-----------------|
Tap to rate this tab
# A B C D E F G H I J K L M N O P Q R S T U V W X Y Z