Song name
# A B C D E F G H I J K L M N O P Q R S T U V W X Y Z

The Front Bottoms - Funny You Should Ask tab

Intro
E---------------------------------|
B---------------------------------|
G---------------------------------| X2
D-5555555522222222----------------|
A-33333333000000002222222233333333|
E-----------------0000000011111111|


'The good thing about this cast...'
E---------------------------------|
B---------------------------------|
G---------------------------------| X4
D-5555555522222222----------------|
A-33333333000000002222222233333333|
E-----------------0000000011111111|


'She said honey you gotta learn...'
E-----------------|
B-----------------|
G-----------------| X3
D-----------------|
A-3333333355557777|
E-1111111133335555|


'All we gotta do is touhuhuch'
E-----------------|
B-----------------|
G-----------------|
D-----------------|
A-3333333355555555|
E-1111111133333333|


'Cause I was young...'
E-----------------------------------------------------------------|
B-----------------------------------------------------------------|
G-----------------------------------------------------------------| X2
D-5~~~--5~----------------7~~~--7~5~~~--5~------------------------|
A-3~~~--3~2~~~--2~5~~~--5~5~~~--5~3~~~--3~2~~~--2~5~~~------------|
E---------0~~~--0~3~~~--3~----------------0~~~--0~3~~~------------|


'And it's freezing...'
E---------------------------------|
B---------------------------------|
G---------------------------------| X4
D-5555555522222222----------------|
A-33333333000000002222222233333333|
E-----------------0000000011111111|


'Come on Chelsea...'
E-----------------|
B-----------------|
G-----------------| X3
D-----------------|
A-3333333355557777|
E-1111111133335555|


'I guess I'm just another thing you left behind'
E-----------------|
B-----------------|
G-----------------|
D-----------------|
A-3333333355555555|
E-1111111133333333|


'But you were young...'
E-----------------------------------------------------------------|
B-----------------------------------------------------------------|
G-----------------------------------------------------------------| X2
D-5~~~--5~----------------7~~~--7~5~~~--5~------------------------|
A-3~~~--3~2~~~--2~5~~~--5~5~~~--5~3~~~--3~2~~~--2~5~~~------------|
E---------0~~~--0~3~~~--3~----------------0~~~--0~3~~~------------|


'It's funny you should ask...'
E---------------------------------|
B---------------------------------|
G---------------------------------| X2
D-55555555------------------------|
A-33333333222222223333333355555555|
E---------000000001111111133333333|


'1,2,3 everyone say cheese...'
E-------------------------------------------------------------------------|
B-------------------------------------------------------------------------|
G-------------------------------------------------------------------------|
D-444455552222----444455552222----5555555522222222------------------------|
A-222233330000555522223333000055553333333300000000555555553333333333333333|
E-------------3333------------3333----------------333333331111111111111111|


'Cause I was young...'
E-----------------------------------------------------------------|
B-----------------------------------------------------------------|
G-----------------------------------------------------------------|
D-5~~~--5~----------------7~~~--7~5~~~--5~------------------------|
A-3~~~--3~2~~~--2~5~~~--5~5~~~--5~3~~~--3~2~~~--2~5~~~------------|
E---------0~~~--0~3~~~--3~----------------0~~~--0~3~~~------------|


'It's funny you should ask...'
E---------------------------------|
B---------------------------------|
G---------------------------------| X4
D-55555555------------------------|
A-33333333222222223333333355555555|
E---------000000001111111133333333|


E---------------------------------|
B---------------------------------|
G---------------------------------|
D-5~~~~~~~~~~~~~~~~~~~~~~~~~~~~~~~|
A-3~~~~~~~~~~~~~~~~~~~~~~~~~~~~~~~|
E---------------------------------|
Tap to rate this tab
# A B C D E F G H I J K L M N O P Q R S T U V W X Y Z