Song name
# A B C D E F G H I J K L M N O P Q R S T U V W X Y Z

The Front Bottoms - Santa Monica tab

Intro
E---------------------------------|
B---------------------------------|
G---------------------------------| X2
D---------------------------------|
A-99999999777777775555555555555555|
E-77777777555555553333333333333333|


'Sometimes I cry...'
E---------------------------------|
B---------------------------------|
G---------------------------------| X3
D---------------------------------|
A-99999999777777775555555555555555|
E-77777777555555553333333333333333|


'Emotional baby boy...'
E-------------------------------------------------|
B-------------------------------------------------|
G-------------------------------------------------|
D---------------------------------7-7-7-7-7-7-7-7-|
A-7-7-7-7-7-7-7-7-9-9-9-9-9-9-9-9-5-5-5-5-5-5-5-5-|
E-5-5-5-5-5-5-5-5-7-7-7-7-7-7-7-7-----------------|


'Emotional man...'
E-----------------------------------------------------------------|
B-----------------------------------------------------------------|
G-----------------------------------------------------------------|
D-------------------------------------------------7777777777777---|
A-5555555555555555777777777777777799999999999999995555555555555---|
E-333333333333333355555555555555557777777777777777----------------|


'I wish we were forever...'
E--------------------|
B--------------------|
G--------------------| X4
D-1212-1277-599-955-3|
A-1010-1055-577-733-3|
E--------------------|


'Being the superior couple'
E-----------------|
B-----------------|
G-----------------|
D-7~7~7~7~7~7~7~7~|
A-5~5~5~5~5~5~5~5~|
E-----------------|


'Loving who I am...'
E---------------------------------|
B---------------------------------|
G---------------------------------|
D---------55-555-57~7~7~7~7~7~7~7~|
A-55-555-533-333-35~5~5~5~5~5~5~5~|
E-33-333-3------------------------|


'I wanna confess it...'
E-----------------|
B-----------------|
G-----------------|
D-9~~~----7~------|
A-7~~~----5~------|
E-----------------|


'Loud enough to make out...'
E---------------------------------|
B---------------------------------|
G---------------------------------| X3
D-55555555555555559999999977775555|
A-55555555555555557777777755553333|
E-3333333333333333----------------|


E---------------------------------|
B---------------------------------|
G---------------------------------| X2
D-555555555555555599-77~~~99-55~~~|
A-555555555555555577-55~~~77-33~~~|
E-3333333333333333----------------|


E-----------------|
B-----------------|
G-----------------|
D-5555555555555555|
A-5555555555555555|
E-3333333333333333|


'Where I'm standing...'
E---------------------------------|
B---------------------------------|
G---------------------------------| X3
D---------------------------------|
A-99999999777777775555555555555555|
E-77777777555555553333333333333333|


'Emotional baby boy...'
E-------------------------------------------------|
B-------------------------------------------------|
G-------------------------------------------------|
D---------------------------------7-7-7-7-7-7-7-7-|
A-7-7-7-7-7-7-7-7-9-9-9-9-9-9-9-9-5-5-5-5-5-5-5-5-|
E-5-5-5-5-5-5-5-5-7-7-7-7-7-7-7-7-----------------|


'Emotional man...'
E-----------------------------------------------------------------|
B-----------------------------------------------------------------|
G-----------------------------------------------------------------|
D-------------------------------------------------7777777777777---|
A-5555555555555555777777777777777799999999999999995555555555555---|
E-333333333333333355555555555555557777777777777777----------------|


'Such a big city...'
E--------------------|
B--------------------|
G--------------------| X4
D-1212-1277-599-955-3|
A-1010-1055-577-733-3|
E--------------------|


'There's something about drowning...'
E-----------------|
B-----------------|
G-----------------|
D-7~7~7~7~7~7~7~7~|
A-5~5~5~5~5~5~5~5~|
E-----------------|


'There's someone dying anyway...'
E---------------------------------|
B---------------------------------|
G---------------------------------|
D---------55-555-57~7~7~7~7~7~7~7~|
A-55-555-533-333-35~5~5~5~5~5~5~5~|
E-33-333-3------------------------|


'I wanna confess it...'
E-----------------|
B-----------------|
G-----------------|
D-9~~~----7~~~----|
A-7~~~----5~~~----|
E-----------------|


'Loud enough to make out...'
E---------------------------------|
B---------------------------------|
G---------------------------------| X3
D-55555555555555559999999977775555|
A-55555555555555557777777755553333|
E-3333333333333333----------------|


E---------------------------------|
B---------------------------------|
G---------------------------------| X4
D-555555555555555599-77~~~99-55~~~|
A-555555555555555577-55~~~77-33~~~|
E-3333333333333333----------------|


E-----------------|
B-----------------|
G-----------------|
D-5555555555555555|
A-5555555555555555|
E-3333333333333333|


'Emotional baby boy...'
E---------------------------------|
B---------------------------------|
G---------------------------------|
D-7~~~~~~~~~~~~~~~~~~~~~~~~~~~~~~~|
A-7~~~~~~~~~~~~~~~~~~~~~~~~~~~~~~~|
E-5~~~~~~~~~~~~~~~~~~~~~~~~~~~~~~~|
Tap to rate this tab
 
# A B C D E F G H I J K L M N O P Q R S T U V W X Y Z