Song name
# A B C D E F G H I J K L M N O P Q R S T U V W X Y Z

The Front Bottoms - Twin Size Mattress tab

Intro
E---------------------------------|
B---------------------------------|
G---------------------------------|
D--9-9-9-9-9-9-9-9-9-9-9-9-9-9-9-9|
A-7-7-7-7-7-7-7-7-7-7-7-7-7-7-7-7-|
E---------------------------------|


'This is for the lions...'
E---------------------------------|
B---------------------------------|
G---------------------------------| X2
D--9-9-9-9-9-9-9-9-9-9-9-9-9-9-9-9|
A-7-7-7-7-6-6-6-6-7-7-7-7-0-0-0-0-|
E---------------------------------|


'But I will help you swim...'
E---------------------------------|
B---------------------------------|
G---------------------------------|
D--6-6-6-6-6-6-6-6-6-6-6-6-6-6-6-6|
A-4-4-0-0-4-4-0-0-4-4-0-0-4-4-0-0-|
E---------------------------------|


E---------------------------------|
B---------------------------------|
G---------------------------------|
D--9-9-9-9-9-9-9-9-9-9-9-9-9-9-9-9|
A-7-7-7-7-7-7-7-7-7-7-7-7-7-7-7-7-|
E---------------------------------|


'This is for the snakes...'
E---------------------------------|
B---------------------------------|
G---------------------------------| X2
D--9-9-9-9-9-9-9-9-9-9-9-9-9-9-9-9|
A-7-7-7-7-6-6-6-6-7-7-7-7-0-0-0-0-|
E---------------------------------|


'It's no big surprize...'
E---------------------------------|
B---------------------------------|
G---------------------------------| X3
D--6-6-6-6-6-6-6-6-6-6-6-6-6-6-6-6|
A-4-4-0-0-4-4-0-0-4-4-0-0-4-4-0-0-|
E---------------------------------|


'I'm sure that we could find something...'
E---------------------------------|
B---------------------------------|
G---------------------------------|
D---------------------------------|
A-22222222666666667777777744444444|
E-00000000444444445555555522222222|


'Maybe shake a tamborine...'
E---------------------------------|
B---------------------------------|
G---------------------------------|
D---------------------------------|
A-2222222266666666777777774~~~~~~~|
E-0000000044444444555555552~~~~~~~|


Interlude
E---------------------------------|
B---------------------------------|
G---------------------------------| X2
D-----------------66666666--------|
A-22222222222222224444444477777777|
E-0000000000000000--------55555555|


E---------------------------------|
B---------------------------------|
G---------------------------------|
D--9-9-9-9-9-9-9-9-9-9-9-9-9-9-9-9|
A-7-7-7-7-7-7-7-7-7-7-7-7-7-7-7-7-|
E---------------------------------|


'This is for the lake...'
E---------------------------------|
B---------------------------------|
G---------------------------------| X2
D--9-9-9-9-9-9-9-9-9-9-9-9-9-9-9-9|
A-7-7-7-7-6-6-6-6-7-7-7-7-0-0-0-0-|
E---------------------------------|


'Make sure you kiss your knuckles...'
E---------------------------------|
B---------------------------------|
G---------------------------------| X3
D--6-6-6-6-6-6-6-6-6-6-6-6-6-6-6-6|
A-4-4-0-0-4-4-0-0-4-4-0-0-4-4-0-0-|
E---------------------------------|


'I'm sure that we could find something...'
E---------------------------------|
B---------------------------------|
G---------------------------------| X2
D---------------------------------|
A-22222222666666667777777744444444|
E-00000000444444445555555522222222|


'I wanna contribute to the chaos...'
E---------------------------------|
B---------------------------------|
G---------------------------------| X2
D---------------------------------|
A-22222222666666667777777744444444|
E-00000000444444445555555522222222|


E-----------------------------------------------------------------|
B-----------------------------------------------------------------|
G-----------------------------------------------------------------|
D-----------------------------------------------------------------|
A-2~~~~~~~~~~~~~~~~~~~~~~~~~~~~~~~~~~~~~~~~~~~~~~~~~~~~~~~~~~~~~~~|
E-0~~~~~~~~~~~~~~~~~~~~~~~~~~~~~~~~~~~~~~~~~~~~~~~~~~~~~~~~~~~~~~~|


E---------------------------------|
B---------------------------------|
G---------------------------------| X4
D-----------------66666~~~--------|
A-22222~~~22222~2~44444~~~77777~7~|
E-00000~~~00000~0~--------55555~5~|


'She hopes I'm cursed forever...'
E---------------------------------|
B---------------------------------|
G---------------------------------| X4
D-----------------66666~~~--------|
A-22222~~~22222~2~44444~~~77777~7~|
E-00000~~~00000~0~--------55555~5~|


E---------------------------------|
B---------------------------------|
G---------------------------------|
D-----------------66666~~~--------|
A-22222---22222~2~44444~~~77777~7~|
E-00000---00000~0~--------55555~5~|


E---------------------------------|
B---------------------------------|
G---------------------------------| X3
D-----------------66666~~~--------|
A-22222~~~22222~2~44444~~~77777~7~|
E-00000~~~00000~0~--------55555~5~|


E-----------------------------------------|
B-----------------------------------------|
G-----------------------------------------|
D--9-9-9-9-9-9-9-9-9-9-9-9-9-9-9-99~~~~~~~|
A-7-7-7-7-7-7-7-7-6-6-6-6-7-7-7-7-0~~~~~~~|
E-----------------------------------------|
Tap to rate this tab
 
# A B C D E F G H I J K L M N O P Q R S T U V W X Y Z