Song name
# A B C D E F G H I J K L M N O P Q R S T U V W X Y Z

The Front Bottoms - Tattooed Tears tab

Intro
E-----------------------------------------------------------------|
B-----------------------------------------------------------------|
G-----------------------------------------------------------------| X2
D-1010101010101010101010101010101010101010101010101010101010101010|
A-0-0-0-0-0-0-0-0-7-7-7-7-7-7-7-7-8-8-8-8-8-8-8-8-8-8-8-8-8-8-8-8-|
E-----------------------------------------------------------------|


'You should know that...'
E-----------------------------------------------------------------|
B-----------------------------------------------------------------|
G-----------------------------------------------------------------| X4
D-1010101010101010101010101010101010101010101010101010101010101010|
A-0-0-0-0-0-0-0-0-7-7-7-7-7-7-7-7-8-8-8-8-8-8-8-8-8-8-8-8-8-8-8-8-|
E-----------------------------------------------------------------|


'Your had me go from...'
E-------------------------------------------------|
B-------------------------------------------------|
G-------------------------------------------------|
D---------------------------------------------4-4-|
A-101010101010101099997777555555553333333333332-2-|
E-8-8-8-8-8-8-8-8-7777555533333333111111111111----|


'I'm gonna have to learn...'
E---------------------------------|
B---------------------------------|
G---------------------------------| X4
D-5555555555554444------------4444|
A-33333333333322223333333333332222|
E-----------------111111111111----|


Interlude
E-----------------------------------------------------------------|
B-----------------------------------------------------------------|
G-----------------------------------------------------------------| X2
D-1010101010101010101010101010101010101010101010101010101010101010|
A-0-0-0-0-0-0-0-0-7-7-7-7-7-7-7-7-8-8-8-8-8-8-8-8-8-8-8-8-8-8-8-8-|
E-----------------------------------------------------------------|


'I hear a whisper...'
E-----------------------------------------------------------------|
B-----------------------------------------------------------------|
G-----------------------------------------------------------------| X4
D-1010101010101010101010101010101010101010101010101010101010101010|
A-0-0-0-0-0-0-0-0-7-7-7-7-7-7-7-7-8-8-8-8-8-8-8-8-8-8-8-8-8-8-8-8-|
E-----------------------------------------------------------------|


'She says that...'
E---------------------------------------------------------|
B---------------------------------------------------------|
G---------------------------------------------------------|
D-----------------------------------------------------4-4-|
A-10101010101010109999999977777777555555553333333333332-2-|
E-8-8-8-8-8-8-8-8-777777775555555533333333111111111111----|


'I'm gonna have to learn...'
E---------------------------------|
B---------------------------------|
G---------------------------------| X2
D-5555555555554444------------4444|
A-33333333333322223333333333332222|
E-----------------111111111111----|


Bridge
E---------------------------------------------------------------------------------|
B---------------------------------------------------------------------------------|
G---------------------------------------------------------------------------------| X2
D--10-10-10-10-10--10-10-10--10--10--10--10--10--10-10-10-10-10-10-10-10--10-10-10|
A----------------10--8--7----------------------10--8--7--0--0--0--0--0--10--8--7--|
E-8--8--8--8--8------------10--10--10--10--10-------------------------------------|


'Lets talk about how it felt...'
E---------------------------------------------------------------------------------|
B---------------------------------------------------------------------------------|
G---------------------------------------------------------------------------------| X2
D--10-10-10-10-10--10-10-10--10--10--10--10--10--10-10-10-10-10-10-10-10--10-10-10|
A----------------10--8--7----------------------10--8--7--0--0--0--0--0--10--8--7--|
E-8--8--8--8--8------------10--10--10--10--10-------------------------------------|


'Lets talk about how what you call...'
E-------------------------------------------------|
B-------------------------------------------------|
G-------------------------------------------------|
D---------------------------------------------4-4-|
A-101010101010101099997777555555553333333333332-2-|
E-8-8-8-8-8-8-8-8-7777555533333333111111111111----|


'I'm gonna have to learn...'
E---------------------------------|
B---------------------------------|
G---------------------------------| X4
D-5555555555554444------------4444|
A-33333333333322223333333333332222|
E-----------------111111111111----|


E-----------------|
B-----------------|
G-----------------|
D-5~~~~~~~~~~~~~~~|
A-3~~~~~~~~~~~~~~~|
E-----------------|
Tap to rate this tab
# A B C D E F G H I J K L M N O P Q R S T U V W X Y Z