The Front Bottoms - Somebody Else tab

I took this from one of their Facebook videos posted back in 2010. This song is on their 
second release, and was re-recorded for their second album, almost the exact same. This 
tab is for the 09' album version. It's a pretty simple song, but a good one nonetheless.

Listen to the song to figure out the strumming patterns.

e---------------------------------------------------|
B---------------------------------------------------|
G---------------------------------------------------|
D---6-6-6-6-xxx----------6-6-6--6-------------------|
A---3-3/4-4-xxx--8--6-6--3-3-3--4---6-6-6--6-6-6-6--|
E----------------6--4-4-------------4-4-4--4-4-4-4--|

Two times in one night, two nights in a row....
e---------------------------------------------------|
B---------------------------------------------------|
G---------------------------------------------------|  (x4)
D---6-6-6-6-xxx----------6-6-6--6-------------------|
A---3-3-4-4-xxx--8--6-6--3-3-3--4---6-6-6--6-6-6-6--|
E----------------6--4-4-------------4-4-4--4-4-4-4--|

And I have no idea what you're going through...
e----------------------|
B----------------------|
G----------------------|
D----------------------|
A---8-(x24)---6-(x32)--|
E---6-(x24)---4-(x32)--|

e---------------------------------------------------|
B---------------------------------------------------|
G---------------------------------------------------|
D---6-6-6-6-xxx----------6-6-6--6-------------------|
A---3-3/4-4-xxx--8--6-6--3-3-3--4---6-6-6--6-6-6-6--|
E----------------6--4-4-------------4-4-4--4-4-4-4--|

The silence in between the songs...
e---------------------------------------------------|
B---------------------------------------------------|
G---------------------------------------------------|
D---6-6-6-6-xxx----------6-6-6--6-------------------|
A---3-3-4-4-xxx--8--6-6--3-3-3--4---6-6-6--6-6-6-6--|
E----------------6--4-4-------------4-4-4--4-4-4-4--|

'Cause I have no idea what you're going through...
e----------------------|
B----------------------|
G----------------------|
D----------------------|
A---8-(x24)---6-(x32)--|
E---6-(x24)---4-(x32)--|

e---------------------------------------------------|
B---------------------------------------------------|
G---------------------------------------------------|
D---6-6-6-6-xxx----------6-6-6--6-------------------|
A---3-3/4-4-xxx--8--6-6--3-3-3--4---6-6-6--6-6-6-6--|
E----------------6--4-4-------------4-4-4--4-4-4-4--|

I would sleep better on your floor than I would ever in my bed
e-----------------------------|
G-----------------------------|
B-----------------------------|
D------------6-(x16)----------|
A---6-(x16)--4--------8-(x32)-|
E---4-----------------6-------|

Like I do....
e---------------------------------------------------|
B---------------------------------------------------|
G---------------------------------------------------|
D---6-6-6-6-xxx----------6-6-6--6-------------------|
A---3-3-4-4-xxx--8--6-6--3-3-3--4---6-6-6--6-6-6-6--|
E----------------6--4-4-------------4-4-4--4-4-4-4--|

Thanks! Please rate if you like it!
Tap to rate this tab
 
# A B C D E F G H I J K L M N O P Q R S T U V W X Y Z