The Frozen Ocean - Caught In The Air tab

Music by Dave Swanson of The Frozen Ocean
http://thefrozenocean.bandcamp.com/album/in-exile

Featuring Drums by Matt Greiner of August Burns Red


e|--0--0--0--0--0---0--0---0--0---0---0---0---0---0---0---0---0--|
B|5---5--5--7--9--9--9--12--12--16--16--16--16--17--12--10--14---|
G|---------------------------------------------------------------|
D|---------------------------------------------------------------|
A|---------------------------------------------------------------|
E|---------------------------------------------------------------|

e|--0--0--0--0--0---0--0---0--0---0---0---0---0---0---0---0---0-|
B|5---5--5-7--9---9--9--12--7---7---7---0---2---0---4---5---5---|
G|--------------------------------------------------------------|
D|--------------------------------------------------------------|
A|--------------------------------------------------------------|
E|--------------------------------------------------------------|

Repeats through whole song.

I am pretty sure this is close. Might be a few slides on the B string.
Not sure on the chords while this is being played. Enjoy, this is my first Tab.

Use a little bit of distortion and reverb
Tap to rate this tab
 
# A B C D E F G H I J K L M N O P Q R S T U V W X Y Z