Song name
# A B C D E F G H I J K L M N O P Q R S T U V W X Y Z

The Frustrators - When She Walked Away tab

                  When She Walked Away - The Frustrators
-----------------------------------------------------------------------------
Tabbed by: Adam
Email: guitarfreak482@hotmail.com

Tuning: EADGBe
    Intro
e|---------------------------------------------------------------------------|
B|---------------------------------------------------------------------------|
G|---7-----------4-----------------------------------------------------------|
D|---7-----------4----------5------------7-----------------------------------|
A|---5-----------2----------5------------7-----------------------------------|
E|--------------------------3------------5-----------------------------------|
    Verse
e|----------------------------------------------------------------------------|
B|----------------------------------------------------------------------------|
G|---7------7-----4------4----------------------------------------------------|
D|---7--x5--7-----4--x5--4-----5--------7-------------------------------------|
A|---5------5-----2------2-----5--x5----7-x5----------------------------------|
E|-----------------------------3--------5-------------------------------------|
  PM .            .           .
     Chorus
e|---------------------------------------------------------------------------|
B|---------------------------------------------------------------------------|
G|---------------------------------------------------------------------------|
D|-----5----------------7----------------------------------------------------|
A|-----5----x6----------7----x6----------------------------------------------|
E|-----3----------------5----------------------------------------------------|
  then...
e|---------------------------------------------------------------------------|
B|---------------------------------------------------------------------------|
G|--7---------4--------------------------------------------------------------|
D|--7---------4------------------5----5--------------------------------------|
A|--5---------2------------------5----5--------------------------------------|
E|-------------------------------3----3--------------------------------------|

  Verse 2
e|----------------------------------------------------------------------------|
B|----------------------------------------------------------------------------|
G|---7------7-----4------4----------------------------------------------------|
D|---7--x5--7-----4--x5--4-----5--------7-------------------------------------|
A|---5------5-----2------2-----5--x5----7-x5----------------------------------|
E|-----------------------------3--------5-------------------------------------|
  PM .            .           .

     Chorus
e|---------------------------------------------------------------------------|
B|---------------------------------------------------------------------------|
G|---------------------------------------------------------------------------|
D|-----5----------------7----------------------------------------------------|
A|-----5----x6----------7----x6----------------------------------------------|
E|-----3----------------5----------------------------------------------------|
 then ....
e|---------------------------------------------------------------------------|
B|---------------------------------------------------------------------------|
G|--7---------4--------------------------------------------------------------|
D|--7---------4--------------5------------7----------------------------------|
A|--5---------2--------------5------------7----------------------------------|
E|---------------------------3------------5----------------------------------|


                               IDK SOLO D:

e|---------------------------------------------------------------------------|
B|---------------------------------------------------------------------------|
G|----7-------7-7---------4-----4-4------------------------------------------|
D|----7-------7-7---------4-----4-4---------5-----5-5------------------------|
A|----5-------5-5---------2-----2-2---------5-----5-5------------------------|
E|------------------------------------------3-----3-3------------------------|

     Chorus
e|---------------------------------------------------------------------------|
B|---------------------------------------------------------------------------|
G|---------------------------------------------------------------------------|
D|-----5----------------7----------------------------------------------------|
A|-----5----x6----------7----x6----------------------------------------------|
E|-----3----------------5----------------------------------------------------|

    End on 577 (A)


| /  slide up
| \  slide down
| h  hammer-on
| p  pull-off
| ~  vibrato
| +  harmonic
| x  Mute note
===============================================================================
Tap to rate this tab
 
# A B C D E F G H I J K L M N O P Q R S T U V W X Y Z