Song name
# A B C D E F G H I J K L M N O P Q R S T U V W X Y Z

The Fucking Champs - Flawless Victory tab

From the recording on III. Transcribed by Rob Vocke.

DGCFAD on a 6 string
DGCFFAADD on a 9 string

Intro
|--------------------------------------------------------------------|
|--------------------------------------------------------------------|
|--------------------------------4------4-----6---7------7-----5-----|
|-----1-----2---4------4-----5-------------------------------------8-|
|--------------------------------------------------------------------|
|-0-0---0-0---0----3-3---3-3---3----4-4---4-4---4----6-6---6-6---6---|

Riff A
|-------------------------------------------------|
|-------------------------------------------------|
|-------------------------------------------------|
|---------3-4---------3-4---------3-4---------5-4-|
|-------------------------------------------------|
|-3-3-3-3-----3-3-3-3-----3-3-3-3-----3-3-3-3-----|


|------------------------------------------|
|------------------------------------------|
|------------------------------------------|
|---------5-4---------5-4---------5-4-3-4--|
|------------------------------------------|
|-6-6-6-6-----6-6-6-6-----6-6-6-6----------|

Bridge into Riff B
|--------------------------------------------|
|--------------------------------------------|
|--------------------------------------------|
|---------4-3---------4-3---------4-3-2-3----|
|--------------------------------------------|
|-6-6-6-6-----6-6-6-6-----6-6-6-6------------|

Riff B
|--------------------------------------------------------------------|
|--------------------------------------------------------------------|
|--------------------------------------------------------------------|
|-2-1---------2-1---------2-1----------------------------------------|
|-----------------------------2-3---------2-3-----------------2-1----|
|-----0-0-0-0-----0-0-0-0---------4-4-4-4-----4-4-4-4-4-4-4-4--------|


|--------------------------------------------------------------------|
|--------------------------------------------------------------------|
|--------------------------------------------------------------------|
|-2-1---------2-1---------2-1----------------------------------------|
|-----------------------------2-3-2-1---------2-1---------2-1--------|
|-----2-2-2-2-----2-2-2-2-------------0-0-0-0-----0-0-0-0-----2-3----|

Bridge back to Riff A
|--------------------------------------|
|--------------------3-4---------------|
|---------3-4--------------------------|
|-------------------------------3-4----|
|--------------------------------------|
|-4-4-4-4------------------------------|

Lead A
|---------5-3-----------------|
|-5-3----------5--3-----------|
|-----2-4------------5-4-3----|
|-----------------------------|
|-----------------------------|
|-----------------------------|


|-------------------------------------------------------------------------|
|-------4-----------------------------------------------------------------|
|-4-5-7---1-0-1-3--4--3-4-3-4-6--8--6-4-3----4-3-1-----------------3-4----|
|-------------------------------------------------------------------------|
|-------------------------------------------------------------------------|
|----------------------------------------------------------4-4-4-4--------|

Riff C
|-----------------------|
|-----------------------|
|-----------------------|
|-----------------------|
|-6--7------------------|
|-------8----7-6-5-5----|

Riff D
|-----------------------------------------------|
|-----------------------------------------------|
|----------------6------------------------------|
|------------5-7-------5-7-9-6------------------|
|-6--7-------------4-6--------------------------|
|-------8-----------------------7-6-5-5--12\----|

Bridge into Riff E
|------------|
|------------|
|------------|
|------------|
|-6--7-------|
|-------8----|

Riff E
|------------------------------------------------------------------|
|------------------------------------------------------------------|
|------------------------------------------------------------------|
|---------------6-----------5---7----------------------------------|
|-----8---------------7---------------10-----7---8-2--2-2-2-4-5----|
|-5-5---5-5-9-5---4-4---4-4---4---6-6----6-6---6---0--0-0-0-2-3----|


|--------------------------------------------------------------|
|--------------------------------------------------------------|
|--------------------------------------------------------------|
|---------------6-----------5---7------------------------------|
|-----8---------------7---------------10-----7---8--7--8-----8-|
|-5-5---5-5-9-5---4-4---4-4---4---6-6----6-6---6----------9----|

Riff F
|--------------------------------------------------------------------|
|--------------------------------------------------------------------|
|--------------------------------------------------------------------|
|---------3-4---------3-4-----5-4---------5-4---------5-4-----5-6----|
|--------------------------------------------------------------------|
|-3-3-3-3-----3-3-3-3-----3-3-----6-6-6-6-----6-6-6-6-----6-6--------|


|--------------------------------------------------------------------|
|--------------------------------------------------------------------|
|---------------------------------------------------------7-6--------|
|---------5-6---------5-6-----7-6---------7-6---------7-6-----7-8----|
|--------------------------------------------------------------------|
|-5-5-5-5-----5-5-5-5-----5-5-----8-8-8-8-----8-8-8-8----------------|

|-------------------------------------------------------------------------------|
|-------------------------------------------------------------------------------|
|-------------------------------------------------------------------------------|
|---------7-8---------7-8-----9-8-------------9-8-------------9-8-------9-10----|
|-------------------------------------------------------------------------------|
|-7-7-7-7-----7-7-7-7-----7-7-----10-10-10-10-----10-10-10-10-----10-10---------|


|----------------------------------------------------------------------------------------|
|----------------------------------------------------------------------------------------|
|----------------------------------------------------------------------------------------|
|---------9-10---------9-10-----11-10-------------11-10-------------11-10-------11-12----|
|----------------------------------------------------------------------------------------|
|-9-9-9-9------9-9-9-9------9-9-------12-12-12-12-------12-12-12-12-------12-12----------|

Solo B
|----------------------------|
|----------------------------|
|-7b9-7b9-7---7-----7--------|
|-----------9---9-8---8-7----|
|----------------------------|
|----------------------------|


|--------------------------------|
|--------------------------------|
|-11----11--11h12-11-10--11-9----|
|----10--------------------------|
|--------------------------------|
|--------------------------------|


|------------------------------------------|
|-16-15-16--15-14-15--14-13-14--13b15rx----|
|------------------------------------------|
|------------------------------------------|
|------------------------------------------|
|------------------------------------------|


|-15----15b17rx-----15-----15----15b17rx-----15-----15----15b17rx-----15-----15----15b17rx--|
|----13----------13----13-----13----------13----13-----12----------12----12-----12----------|
|-------------------------------------------------------------------------------------------|
|-------------------------------------------------------------------------------------------|
|-------------------------------------------------------------------------------------------|
|-------------------------------------------------------------------------------------------|


   TP        TP
|--------------------------------14----17-14--------17-14----15-17-15----|
|-12b14=====10pb12r====10-9--15-----15-------15-14--------15-------------|
|------------------------------------------------------------------------|
|------------------------------------------------------------------------|
|------------------------------------------------------------------------|
|------------------------------------------------------------------------|


|----------------------------------|
|-15b17r=====15b17r====15b17r======|
|--------16--------16--------16----|
|----------------------------------|
|----------------------------------|
|----------------------------------|

Solo C
|-------------------------------------------5-4------|
|-------3------7-5--------------------5-4------------|
|-4----------------6------------6-5-------5-----6----|
|----5------5--------8--6---6-7-----7----------------|
|----------------------------------------------------|
|----------------------------------------------------|


|---------------------------------------------------------------------|
|-7-6-5-4--4-3-2-------2----5--2-4-5-4-5--9--5-7-9-7-9--9--5-7-9-7-9--|
|----------------4---4---3--------------------------------------------|
|---------------------------------------------------------------------|
|------------------------1--------------------------------------------|
|---------------------------------------------------------------------|


|-------------------------------------------5-4------|
|-------3------7-5--------------------5-4------------|
|-4----------------6------------6-5-------5-----6----|
|----5------5--------8--6---6-7-----7----------------|
|----------------------------------------------------|
|----------------------------------------------------|


|---------------------------------------------------------------------|
|---------------------------------------------------------------------|
|-11-10-9-8--8-7-6-4--4-6-3--5--2-4-5-4-5--9--5-7-9-7-9--9--5-7-9-7-9-|
|---------------------------------------------------------------------|
|--9--8-7-6--6-5-4-2--2-4-1-------------------------------------------|
|---------------------------------------------------------------------|


|---------------------------------------------------------------|
|---------------------------------------------------------------|
|----------------------------------6---6----6---6----6---6------|
|-8----8-----8----8-----8----8-------8----8---8----8---8---8----|
|---10----10---10----10---10---10-------------------------------|
|---------------------------------------------------------------|


15----15b17rx-----15-----15----15b17rx-----15-----15----15b17rx-----15-----15----15b17rx-----15---|
---13----------13----13-----13----------13----13-----12----------12----12-----12----------12----12|
--------------------------------------------------------------------------------------------------|
--------------------------------------------------------------------------------------------------|
--------------------------------------------------------------------------------------------------|
--------------------------------------------------------------------------------------------------|


17----17b19rx-----17-----17----17b19rx-----17-----17----17b19rx-----17-----17----17b19rx-----17---|
---15----------15----15-----15----------15----15-----14----------14----14-----14----------14----14|
--------------------------------------------------------------------------------------------------|
--------------------------------------------------------------------------------------------------|
--------------------------------------------------------------------------------------------------|
--------------------------------------------------------------------------------------------------|


   TP        TP
|------------------------------|
|------------------------------|
|-16b18=====14pb16r============|
|------------------------------|
|---------------------2-2-2----|
|---------------------0-0-0----|

Tablature Legend
----------------
 h   - hammer-on
 p   - pull-off
 b   - bend
 pb  - pre-bend
 r   - bend release (if no number after the r, then release immediately)
 /\  - slide into or out of (from/to "nowhere")
 s   - legato slide
 S   - shift slide
 TP  - trem. picking
 =   - hold bend; also acts as connecting device for hammers/pulls
Tap to rate this tab
 
# A B C D E F G H I J K L M N O P Q R S T U V W X Y Z