Song name
# A B C D E F G H I J K L M N O P Q R S T U V W X Y Z

The Galacticos - He Said She Said tab

he said she said - the galacticos intro tab
hi, my name is ken van endert and this is my first tab. i hope you enjoy it.

intro:
e-----------------------------------------------------------------|
b-----------------------------------------------------------------|
g-----------9-9---------------------------------------------------|
d-----11-11-----11-11-9-9-7-7-9-9-11-11---------------------------|   x2
a-0-0-------------------------------------------------------------|
e-----------------------------------------------------------------|

e-----------------------------------------------------------------|
b-----------------------------------------------------------------|
g-----------9-9---------------------------------------------------|
d-0-0-11-11-----11-11-9-9-7-7-9-9-11-11---------------------------|   x2
a-----------------------------------------------------------------|
e-----------------------------------------------------------------|

e-----------------------------------------------------------------|
b-----------------------------------------------------------------|
g-----------------------------------------------------------------|
d-----------9-9---------------------------------------------------|   x2
a-0-0-11-11-----11-11-9-9-7-7-9-9-11-11---------------------------|
e-----------------------------------------------------------------|

e-----------------------------------------------------------------|
b-----------------------------------------------------------------|
g-----------9-9---------------------------------------------------|
d-0-0-11-11-----11-11-9-9-7-7-9-9-11-11---------------------------|   x1
a-----------------------------------------------------------------|
e-----------------------------------------------------------------|

e-----------------------------------------------------------------|
b-----------------------------------------------------------------|
g-----------9-9-------9-11-9----9-11-9----------------------------|
d-0-0-11-11-----11-11--------11-----------------------------------|   x1
a-----------------------------------------------------------------|
e-----------------------------------------------------------------|

http://www.thegalacticos.be/thegalacticos/Home.html
Tap to rate this tab
# A B C D E F G H I J K L M N O P Q R S T U V W X Y Z