Song name
# A B C D E F G H I J K L M N O P Q R S T U V W X Y Z

The Game - Martians Vs Goblins tab

The Game
"Martians Vs. Goblins"
R.E.D. Album
2011

Tuning is Standard (e B G D A E)

This sounds better with Lead and Rhythm Guitars
 than just one but either way, all of it's playable with one guitar.
 I might put the bass up some other time.

PM...... -> palm mute

Intro (Rhythm)

e---------------------------------)
B---------------------------------)
G---------------------------------)
D--2-2-2-2-2-5-5-4-4-4-4-4-4-9-9--) Played once
A--2-2-2-2-2-5-5-4-4-4-4-4-4-9-9--)
E--0-0-0-0-0-3-3-2-2-2-2-2-2-7-7--) 

e-----------------------------------)
B-----------------------------------)
G-----------------------------------)
D--2-2-2-2-2-2-5-5-4-4-4-4-4-4-9-9--) Played 3 Times
A--2-2-2-2-2-2-5-5-4-4-4-4-4-4-9-9--)
E--0-0-0-0-0-0-3-3-2-2-2-2-2-2-7-7--)

Intro (Lead)

e---------------------------------)
B---------------------------------)
G----------------------------4-4--)
D--2-2-2-2-2-5-5-4-4-4-4-4-4-4-4--)
A--2-2-2-2-2-5-5-4-4-4-4-4-4-2-2--)
E--0-0-0-0-0-3-3-2-2-2-2-2-2------)

e--------------------2---------------)       e------------------------)  
B------------------3---5-3-0-53-0-0~-)  OR   B------3-7-5-3-0-53-0-0~-)
G--------------2-4-------------------)       G--2-4-------------------) 
D--2-2-2-2-2-2-----------------------)       D------------------------)
A--2-2-2-2-2-2-----------------------)       A------------------------)
E--0-0-0-0-0-0-----------------------)       E------------------------)

Verse (Rhythm)

e------------------------------------)
B------------------------------------)
G------------------------------------)
D--2-2-2-2-2-2-5-5-4-4-4-4-4-4-9-9---) Played 8 Times
A--2-2-2-2-2-2-5-5-4-4-4-4-4-4-9-9---)
E--0-0-0-0-0-0-3-3-2-2-2-2-2-2-7-7---)
(PM..................................)

Verse (Lead) played during the 5th time rhythm is played and after the 4th strum 

e---------------------------------)
B---------------------------------)
G--------2------------------------)
D--4-2-4---5-4-2---42-24-5-4------) Played 4 Times
A--------------------5-------5-2--)
E---------------------------------)

Chorus (Rhythm)

e-----------------------------------)
B-----------------------------------)
G-----------------------------------)
D--2-2-2-2-2-2-5-5-4-4-4-4-4-4-9-9--) Played 4 Times
A--2-2-2-2-2-2-5-5-4-4-4-4-4-4-9-9--)
E--0-0-0-0-0-0-3-3-2-2-2-2-2-2-7-7--)

Chorus (Lead)

e--------5-----------------------)
B--7-5-7---8-7-5--75-57-8-7---0--)
G-------------------7-------7----)
D--------------------------------) Played 4 Times
A--------------------------------)
E--------------------------------)

Or you could try this for the Chorus (Lead)

e---------------------------------)
B--7-5-7-10-8-7-5--75-57-8-7---0--)
G--------------------7-------7----)
D---------------------------------)
A---------------------------------)
E---------------------------------)

Basically it's...

Intro
Verse
Chorus
Verse
Chorus
Verse
Chorus

Enjoy

Tabbed by Triggar8
(Chris Lopez)
6/14/12
Tap to rate this tab
# A B C D E F G H I J K L M N O P Q R S T U V W X Y Z