Song name
# A B C D E F G H I J K L M N O P Q R S T U V W X Y Z

The Gaslight Anthem - We Came To Dance tab

Help us improve GuitareTab! Take a short survey!
-------------------------------------------------------------------------------
			 WE CAME TO DANCE - The Gaslight Anthem
-------------------------------------------------------------------------------
Tabbed by: Bizzles
Email: sandkid6@aol.com

Tuning: Guitar 1 is Standard

********Guitar 2 is Drop D (DADGBe)

I tabbed both guitars in this song, but since they're in different tunings, i separated 
like two different tabs in one to avoid confusion. I'm pretty sure it's accurate though. 
song, have fun.


INTRO GTR 1 x2
e|----0--------------0-------------0--------------0-------------0------------|
B|---------------------------------------------------------------------------|
G|--7---7---7---7------7---7---7------7---7---7-----7---7---7-----7---5------|
D|5-------5---5---5------5---5---5------5---5---5-----5---5---5-----5--------|
A|---------------------------------------------------------------------------|
E|---------------------------------------------------------------------------|

e|------0--------------------------------------------------------------------|
B|---------------------------------------------------------------------------|
G|--7-----7---7---7-7-7-7-9-9-9-9-9-9-9-9------------------------------------|
D|5---5-----5-----x-x-x-x-x-x-x-x-x-x-x-x------------------------------------|
A|----------------5-5-5-5-7-7-7-7-7-7-7-7------------------------------------|
E|---------------------------------------------------------------------------|


Verse (Listen for strumming pattern, this is rough.)
e|0-0-00-0-00-000-3-3-33-3-33-333-2-2-22-2-22-222-0-0-00-0-00-000------------|
B|0-0-00-0-00-000-3-3-33-3-33-333-3-3-33-3-33-333-1-1-11-1-11-111------------|
G|0-0-00-0-00-000-0-0-00-0-00-000-2-2-22-2-22-222-0-0-00-0-00-000------------|
D|2-2-22-2-22-222-0-0-00-0-00-000-0-0-00-0-00-000-2-2-22-2-22-222------------|
A|2-2-22-2-22-222-2-2-22-2-22-222-----------------3-3-33-3-33-333------------|
E|0-0-00-0-00-000-3-3-33-3-33-333--------------------------------------------|


Chorus (same as intro) x2
e|----0--------------0-------------0--------------0-------------0------------|
B|---------------------------------------------------------------------------|
G|--7---7---7---7------7---7---7------7---7---7-----7---7---7-----7---5------|
D|5-------5---5---5------5---5---5------5---5---5-----5---5---5-----5--------|
A|---------------------------------------------------------------------------|
E|---------------------------------------------------------------------------|

e|------0--------------------------------------------------------------------|
B|---------------------------------------------------------------------------|
G|--7-----7---7---7-7-7-7-9-9-9-9-9-9-9-9------------------------------------|
D|5---5-----5-----x-x-x-x-x-x-x-x-x-x-x-x------------------------------------|
A|----------------5-5-5-5-7-7-7-7-7-7-7-7------------------------------------|
E|---------------------------------------------------------------------------|

Then Intro x1

Verse 2
e|0~~---------3~~--------2~~--------0~~--------------------------------------|
B|0~~---------3~~--------3~~--------1~~--------------------------------------|
G|0~~---------0~~--------2~~--------0~~--------------------------------------|
D|2~~---------0~~--------0~~--------2~~--------------------------------------|
A|2~~---------2~~-------------------3~~--------------------------------------|
E|0~~---------3~~------------------------------------------------------------|

e|---------------------------------------------------------------------------|
B|---------------------------------------------------------------------------|
G|9999999999999999-121212121212121212121212-16161616-141414141414141414141414|
D|xxxxxxxxxxxxxxxx-xxxxxxxxxxxxxxxxxxxxxxxx-xxxxxxxx-xxxxxxxxxxxxxxxxxxxxxxxx|
A|7777777777777777-101010101010101010101010-14141414-121212121212121212121212|
E|---------------------------------------------------------------------------|

e|---------------------------------------------------------------------------|
B|---------------------------------------------------------------------------|
G|161616-14-12121212121212121212121212121212---------------------------------|
D|xxxxxx-xx-xxxxxxxxxxxxxxxxxxxxxxxxxxxxxxxx---------------------------------|
A|141414-12-10101010101010101010101010101010---------------------------------|
E|---------------------------------------------------------------------------|

Chorus x2

Guitar 2 plays the solo while guitar one plays these four chords as arpeggios
I'm not going to tab out exactly what he does because it's kind of hard to hear, but 
are the chords:
  Em      G         D         C
e|0-------3---------2---------0----------------------------------------------|
B|0-------3---------3---------1----------------------------------------------|
G|0-------0---------2---------0----------------------------------------------|
D|2-------0---------0---------2----------------------------------------------|
A|2-------2-------------------3----------------------------------------------|
E|0-------3------------------------------------------------------------------|


then:
e|----------|REST------------------------------------------------------------|
B|----------|REST------------------------------------------------------------|
G|----------|REST------------------------------1212121212121212121212--------|
D|2-2-2-2-2-|REST------------------------------xxxxxxxxxxxxxxxxxxxxxx--------|
A|2-2-2-2-2-|REST------1010101010101010101010101010101010101010101010--------|
E|0-0-0-0-0-|REST----PM........................------------------------------|


Outro (Listen for timing and strumming, it's a bit different from the rest of the song)
e|---------------------------------------------------------------------------|
B|---------------------------------------------------------------------------|
G|121212121212-16161616-16/14141414-1212121212-16161616-1414141414141414-----|
D|xxxxxxxxxxxx-xxxxxxxx-xx-xxxxxxxx-xxxxxxxxxx-xxxxxxxx-xxxxxxxxxxxxxxxx-----|
A|101010101010-14141414-14/12121212-1010101010-14141414-1212121212121212-----|
E|---------------------------------------------------------------------------|

e|---------------------------------------------------------------------------|
B|---------------------------------------------------------------------------|
G|16161616-16/14141414-12121212-11-11-11-11----------------------------------|
D|xxxxxxxx-xx-xxxxxxxx-xxxxxxxx--x--x--x--x----------------------------------|
A|14141414-14/12121212-10101010--9--9--9--9----------------------------------|
E|---------------------------------------------------------------------------|

Play that until the end, and end on G|12
                                    D|x
                                    A|10


INTRO GTR. 2
e|---------------------------------------------------------------------------|
B|---------------------------------------------------------------------------|
G|------------------------------------------------------5----5---5----5------|
D|------------------------------------------------------5----5---5----5------|
A|---------------------------------------------------33-3-33-3-3-3-33-3------|
D|2222222222222222-5555555555555555-0000000000000000-------------------------|
PM................ ................ ................ ..   ..   .   ..

INTRO GTR. 2 Cont.
e|---------------------------------------------------------------------------|
B|---------------------------------------------------------------------------|
G|---------------------------------------------------5555555555555555--------|
D|2222222222222222-5555555555555555-0000000000000000-5555555555555555--------|
A|2222222222222222-5555555555555555-0000000000000000-3333333333333333--------|
E|2222222222222222-5555555555555555-0000000000000000-------------------------|


Verse 1 (...sing out a chorus)
e|---------------------------------------------------------------------------|
B|---------------------------------------------------------------------------|
G|---------------------------------------------------------------------------|
D|---------------------------------------------------------------------------|
A|7777777777777777-1010101010101010101010-14141414-1212121212121212-14141414-|
E|---------------------------------------------------------------------------|
PM................ ...................... ........ ................ ........
e|---------------------------------------------------------------------------|
B|---------------------------------------------------------------------------|
G|--------------1212121212---------------------------------------------------|
D|--------------xxxxxxxxxx---------------------------------------------------|
A|101010101010101010101010---------------------------------------------------|
E|---------------------------------------------------------------------------|
PM..............

Chorus x2
e|---------------------------------------------------------------------------|
B|---------------------------------------------------------------------------|
G|---------------------------------------------------5--55-5-5-55-555--------|
D|2-22-2-22-22-222-5-55-5-55-55-555-0-00-0-00-00-000-5--55-5-5-55-555--------|
A|2-22-2-22-22-222-5-55-5-55-55-555-0-00-0-00-00-000-33-33-3-3-33-333--------|
E|2-22-2-22-22-222-5-55-5-55-55-555-0-00-0-00-00-000-------------------------|

Intro
Verse 1 x1

Verse 2 part 2
e|---------------------------------------------------------------------------|
B|---------------------------------------------------------------------------|
G|99999999999999-12121212121212121212-16161616-141414141414-16161616-12121212|
D|xxxxxxxxxxxxxx-xxxxxxxxxxxxxxxxxxxx-xxxxxxxx-xxxxxxxxxxxxxxxxxxxxx-xxxxxxxx|
A|77777777777777-10101010101010101010-14141414-121212121212-14141414-10101010|
E|---------------------------------------------------------------------------|

Chorus x2

Solo (repeat as needed)

   T         T
e|17p7h10p7-17p7h10p7-h10----------------------------------------------------|
B|-----------------------7h8-10-/12\10---------------------------------------|
G|---------------------------------------------------------------------------|
D|---------------------------------------------------------------------------|
A|---------------------------------------------------------------------------|
E|---------------------------------------------------------------------------|

                              He has some weird effect going on here...
                              It sounds alright if you trempick and slowly
                              bend up to the 13th fret. Thats what 12*b(13)
                              means.
e|---------------------------------------------------------------------------|
B|8~~~~--12-8~~~~~~--12-10~-12-12*b(13)--------------------------------------|
G|---------------------------------------------------------------------------|
D|---------------------------------------------------------------------------|
A|---------------------------------------------------------------------------|
E|---------------------------------------------------------------------------|

The outro is the same as the chorus, except for the open D chord, he goes up the octave 
plays it at 5 on the A string a few times. end on D|5
                                                                 A|5
                                                                 E|5

That's it.

| /  slide up
| \  slide down
| h  hammer-on
| p  pull-off
| ~  let ring
| +  harmonic
| x  Mute note
Related for We Came To Dance tab