Song name
# A B C D E F G H I J K L M N O P Q R S T U V W X Y Z

The Gaslight Anthem - 59 Sound tab

Tuning:standard
great band, grate song.listen to song for struming,punk rythem.
intro/chorus
e|-----------------------------------------------------------------------------------|
B|-----------------------------------------------------------------------------------|
G|--3---------8--------------------10--8---------------------------------------------|
D|--3---------8----------5---------10--8---------------------------------------------|
A|--1---------6----------5---------8---6---------------------------------------------|
E|-----------------------3-----------------------------------------------------------|

verse. palm muted, all downstroks. all x 16
e|---------------------------------------------------------------------------------|
B|---------------------------------------------------------------------------------|
G|-------------7-----------------8-------------------------------------------------|
D|---5---------7--------5--------8-------------------------------------------------|
A|---5---------5--------5--------6-------------------------------------------------|
E|---3------------------3----------------------------------------------------------|
pre,chours
e|---------------------------------------------------------------------------------|
B|---------------------------------------------------------------------------------|
G|-----8---------------------------------------------------------------------------|
D|-----8---------------------------------------------------------------------------|
A|-----6---------------------------------------------------------------------------|
E|---------------------------------------------------------------------------------|

cheers, any questions just ask.
Tap to rate this tab
 
# A B C D E F G H I J K L M N O P Q R S T U V W X Y Z