Guitaretab - guitar tabs
Song name
# A B C D E F G H I J K L M N O P Q R S T U V W X Y Z

The Gaslight Anthem - Sweet Delta Blues tab

Sweet Delta Blues  The Gaslight Anthem
This is a song from their demo. One of the best demos Ive heard, worth checking out.
I only got the lead guitar part, sorry.


(0:00) to (0:31)
e|---------------------------------------------------------------------------|
B|---------------------------------------------------------------------------|
G|-6--8--10-6--10-8--6-10--8-11-10--8--6-13-10--8--6-13-10--8--6-13-10--8----|
D|-x--x--x--x--x--x--x--x--x--x--x--x--x--x--x--x--x--x--x--x--x--x--x--x----|
A|-4--6--8--4--8--6--4--8--6--9--8--6--4-11--8--6--4-11--8--6--4-11--8--6----|
E|---------------------------------------------------------------------------|

(0:32)  to (0:57)
e|---------------------------------------------------------------------------|
B|---------------------------------------------------------------------------|
G|---5h6p5-------------------------------------------------------------------|
D|--6------------------------------------------------------------------------|
A|---------------------------------------------------------------------------|
E|---------------------------------------------------------------------------|

(0:57)  to  (1:02)
e|---------------------------------------------------------------------------|
B|---------------------------------------------------------------------------|
G|-5-6-8-10-11-10------------------------------------------------------------|
D|---------------------------------------------------------------------------|
A|---------------------------------------------------------------------------|
E|---------------------------------------------------------------------------|

(1:02)  to (1:34)
e|---------------------------------------------------------------------------|
B|---------------------------------------------------------------------------|
G|-13-11-10-8-8-11-10-8-10-8-5-6---5-6---5-6-8-------------------------------|
D|-------------------------------6-----6-------------------------------------|
A|---------------------------------------------------------------------------|
E|---------------------------------------------------------------------------|
[ Tab from: http://www.guitaretab.com/t/the-gaslight-anthem/114674.html ]
(1:34)  to (2:02)
e|---------------------------------------------------------------------------|
B|---------------------------------------------------------------------------|
G|---5h6p5-------------------------------------------------------------------|
D|--6------------------------------------------------------------------------|
A|---------------------------------------------------------------------------|
E|---------------------------------------------------------------------------|

(2:02) to (2:07)
e|---------------------------------------------------------------------------|
B|---------------------------------------------------------------------------|
G|-5-6-8-10-11-10------------------------------------------------------------|
D|---------------------------------------------------------------------------|
A|---------------------------------------------------------------------------|
E|---------------------------------------------------------------------------|

(2:07)  to  (2:37)
e|---------------------------------------------------------------------------|
B|---------------------------------------------------------------------------|
G|-13-11-10-8-8-11-10-8-10-8-5-6---5-6---5-6-8-------------------------------|
D|-------------------------------6-----6-------------------------------------|
A|---------------------------------------------------------------------------|
E|---------------------------------------------------------------------------|

(2:37)  to (3:10)
e|---------------------------------------------------------------------------|
B|---------------------------------------------------------------------------|
G|-6--10-8--6--10-8--6-10--8-11-10--8--6-13-10--8--6-13-10--8--6-13-10--8--6-|
D|-x--x--x--x--x--x--x--x--x--x--x--x--x--x--x--x--x--x--x--x--x--x--x--x--x-|
A|-4--8--6--4--8--6--4--8--6--9--8--6--4-11--8--6--4-11--8--6--4-11--8--6--4-|
E|---------------------------------------------------------------------------|

(3:35) to (4:05)
e|---------------------------------------------------------------------------|
B|---------------------------------------------------------------------------|
G|--10-8-11-10-6-------------------------------------------------------------|
D|---------------------------------------------------------------------------|
A|---------------------------------------------------------------------------|
E|---------------------------------------------------------------------------|

(4:05)  to (4:51)
e|---------------------------------------------------------------------------|
B|---------------------------------------------------------------------------|
G|-----13-13--10----13-13--10-----13-13-10-----------------------------------|
D|--11-----------11-----------11----------11/13------------------------------|
A|---------------------------------------------------------------------------|
E|---------------------------------------------------------------------------|

I hope some of you have heard this song and can use this tab. Have fun.
Related for Sweet Delta Blues tab