Song name
# A B C D E F G H I J K L M N O P Q R S T U V W X Y Z

The Gaslight Anthem - Even Cowgirls Get The Blues tab

Even Cowgirls Get the Blues (intro) - The Gaslight Anthem

Tabbed by: Crescens
Tuning: EADGBe


e|------------------------------------------|
B|-9~-11-9-7----7---------------------------|
G|-----------8~---8-6----6------------------|
D|--------------------9~---9/11-------------|
A|------------------------------11~-9-------|
E|------------------------------------------|

e|------------------------------------------|
B|-9~-11-9-7----7---------------------------|
G|-----------8~---8-6----6------------------|
D|--------------------9~---9/11-------------|
A|------------------------------11~---------|
E|------------------------------------------|

e|------------------------------------------|
B|-9~-11-9-7----7---------------------------|
G|-----------8~---8-6----6------------------|
D|--------------------9~---9/11-------------|
A|------------------------------11~-9-------|
E|------------------------------------------|

e|--------------------9~-11b-9\7------------|
B|-9~-11-9-7----7----------------9~-7-------|
G|-----------8~---8-6-----------------------|
D|------------------------------------------|
A|------------------------------------------|
E|------------------------------------------|


/ = slide up
\ = slide down
h = hammer on 
p = pull off
b = bend
r = release
x = muted string
~ = vibrato
Tap to rate this tab
 
# A B C D E F G H I J K L M N O P Q R S T U V W X Y Z