Guitaretab - guitar tabs
Song name
# A B C D E F G H I J K L M N O P Q R S T U V W X Y Z

The Gaslight Anthem - Blue Jeans And White T-shirts tab

          

       THE GASLIGHT ANTHEM
       BLUE JEANS AND WHITE T SHIRTS
       SENOR AND THE QUEEN EP

       * NOTE TUNING
         DROP THE B STRING DOWN TO A
     INTRO
   E]------------------------------------------------------------------|
   a]----0-000---0-000---0-000---0--0----0-000---0-000---0-000---0--0--|
   g]----2-222---2-222---2-222---2--2----2-222---2-222---2-222---2--2--|
   d]----3-333---3-333---3-333---3-------3-333---3-333---3-333---3-----|
   a]--5-------5-------5-------5---3---1-------1-------1-------1---3---|
   e]------------------------------------------------------------------|
[ Tab from: http://www.guitaretab.com/t/the-gaslight-anthem/115605.html ]
    VERSES- REPEAT EACH CHORD ABOUT 8 TIMES
   e]------------------       |                          --------|
   a]--0---0-------0---       |                          --------|
   g]--2---2---2---2---TIMES 3| THEN AT END OF VERSES AND ---0---|
   d]--3---3---3---3---       |  CHORUS PLAY THIS ABOUT  ----5---|
   a]--5---1---3---1---       |      8 TIMES              ---3---|
   e]----------1-------       |                           -------|

     CHORUS
   e]--------------------|    THATS ABOUT IT, HOPE IT HELPED.
   A]--0---0-------------|   ANY QUESTIONS SUGGESTIONS OR ABUSE SEND TO
   G]--2---2---2---0-----|      GLENNR.82@HOTMAIL.COM
   D]--3---3---3---5-----|
   A]--5---1---3---3-----|
   E]----------1---------|

       
Related for Blue Jeans And White T-shirts tab
Advertisement will be closed in 10 seconds