Song name
# A B C D E F G H I J K L M N O P Q R S T U V W X Y Z

The Gaslight Anthem - Heres Lookin At You Kid tab

The Gaslight Anthem
Here's Lookin' At You Kid

There's only one other tab on this site for this song and it's only the chords and it's
the wrong key. I'm pretty sure this is 100% correct if not feel free to correct me.

No Capo


Intro X1 [00.00]

   B                            G#m
[--------------------------------------------------------------]
[--------4--------------4--------------4--------------4--------]
[-----------4--------------4--------------4--------------4-----]
[-----4--------4-----4--------4-----6--------4-----6--------4--]
[--2--------------2--------------------------------------------]
[--------------------------------4--------------4--------------]

   E                            F#
[--------------------------------------------------------------]
[--------0--------------0--------------2--------------2--------]
[-----------1--------------1--------------3--------------3-----]
[-----2--------2-----2--------2-----4--------4-----4--------4--]
[--------------------------------------------------------------]
[--0--------------0--------------2--------------2--------------]


Verse 1 X2 [00.09]

   B                            G#m
[--------------------------------------------------------------]
[--------4--------------4--------------4--------------4--------]
[-----------4--------------4--------------4--------------4-----]
[-----4--------4-----4--------4-----6--------6-----6--------6--]
[--2--------------2--------------------------------------------]
[--------------------------------4--------------4--------------]
      You can tell Gail...
          Even if that's...

   E                            F#
[--------------------------------------------------------------]
[--------0--------------0--------------2--------------2--------]
[-----------1--------------1--------------3--------------3-----]
[-----2--------2-----2--------2-----4--------4-----4--------4--]
[--------------------------------------------------------------]
[--0--------------0--------------2--------------2--------------]
...famous now for all....
        She should've given...

Bridge/Chorus [00.28]

  G#m             F#             E              B
[--------------------------------------------------------------]
[--------4--------------2--------------0--------------4--------]
[-----------4--------------3--------------1--------------4--- -]
[-----6--------6-----4--------4-----2--------2-----4--------4--]
[--------------------------------------------------------------]
[--4--------------2--------------0--------------2--------------]
...kids on the field of the first...

  G#m             F#             E              E
[--------------------------------------------------------------]
[--------4--------------2--------------0--------------0--------]
[-----------4--------------3--------------1--------------1--- -]
[-----6--------6-----4--------4-----2--------2-----2--------2--]
[--------------------------------------------------------------]
[--4--------------2--------------0--------------0--------------]
   I would have been her fool...

  G#m             F#             E              B
[--------------------------------------------------------------]
[--------4--------------2--------------0--------------4--------]
[-----------4--------------3--------------1--------------4--- -]
[-----6--------6-----4--------4-----2--------2-----4--------4--]
[--------------------------------------------------------------]
[--4--------------2--------------0--------------2--------------]
...would've sang out your name..

 G#m             F#             B              B
[--------------------------------------------------------------]
[--------4--------------2--------------4--------------4--------]
[-----------4--------------3--------------4--------------4--- -]
[-----6--------6-----4--------4-----4--------4-----4--------4--]
[--------------------------------------------------------------]
[--4--------------2--------------2--------------2--------------]
   You tell that to Gail if she calls...

  G#m                            E
[--------------------------------------------------------------]
[--------4--------------4--------------0--------------0--------]
[-----------4--------------4--------------1--------------1-----]
[-----6--------6-----6--------6-----2--------2-----2--------2--]
[--------------------------------------------------------------]
[--4--------------4--------------0--------------0--------------]


   F#
[--------------------------------------------------------------]
[--------2--------------2--------------------------------------]
[-----------3--------------3-----------------------------------]
[-----4--------4-----4--------4--------------------------------]
[--------------------------------------------------------------]
[--2--------------2--------------------------------------------]


Verse 2 X2 [00.55] Same as Verse 1

And you can tell Jane if she write...

Bridge/Chorus 2 is the Same as Bridge/Chorus 1 except at the end the B is played for
as long before going into the interlude.


Interlude x6 [01.35]

  G#m             E              B              F#
[--------------------------------------------------------------]
[--------4--------------0--------------4--------------2--------]
[-----------4--------------1--------------4--------------3--- -]
[-----6--------6-----2--------2-----4--------4-----4--------4--]
[--------------------------------------------------------------]
[--4--------------0--------------2--------------2--------------]


Then at [02.04] x1

  G#m             F#             B              B
[--------------------------------------------------------------]
[--------4--------------2--------------4--------------4--------]
[-----------4--------------3--------------4--------------4--- -]
[-----6--------6-----4--------4-----4--------4-----4--------4--]
[--------------------------------------------------------------]
[--4--------------2--------------2--------------2--------------]


Verse 3 Same as the others [02.16]

Outro Same as the others [02.53]


The little guitar bit doing the solo


[--------------------------------------------------------------]
[--19--19--17--16--16------16--16--14--12--12----14--12/14--12-]
[--------------------------------------------------------------]
[--------------------------------------------------------------]
[--------------------------------------------------------------]
[--------------------------------------------------------------]


The Lyrics

Note: All of the lyrics for this song I have found online say that the 3rd verse is 'You
Nana If She Asks'. However It's actually 'You Remind Anna'. If you listen to the rest
the lyrics he's talking about how he chose another girl while she was making up her 
I don't know but I'm pretty sure GLA arn't into incest.


Here's Lookin' At You Kid

You can tell Gail, if she calls,
That I'm famous now for all of these rock and roll songs.
And even if that's a lie, she should've given me a try.
When were kids on the field of the first day of school.
I would've been her fool.
And I would've sang out her name in those old high school halls.
You tell that to Gail, if she calls.

And you can tell Jane, if she writes,
That I'm drunk off all these stars and all these crazy Hollywood nights.
That's total deceit, but she should've married me.
And tell her I spent every night of my youth on the floor,
Bleeding out from all these wounds.
I would've gotten her a ride out of that town she despised.
You tell that to Janey, if she writes.

But boys will be boys and girls have those eyes
That will cut you to ribbons sometimes.
And all you can do is just wait by the moon
And bleed if it's what she says you oughta do.

You remind Anna, if she asks why,
That a thief stole my heart while she was making up her mind.
I heard she lives in Brooklyn with the cool,
Goes crazy over that New York scene on 7th Avenue.
But I used to wait at the diner, a million nights without her,
Praying she won't cancel again tonight.
And the waiter served my coffee with a consolation sigh.
You remind Anna, if she asks why.

You know it's hard to tell you this.
Oh it's hard to tell you this.
Here's looking at you, Kid.

Hope the tab is good.

If you want some comedy music go here
www.myspace.com/johnlally
Tap to rate this tab
# A B C D E F G H I J K L M N O P Q R S T U V W X Y Z