Song name
# A B C D E F G H I J K L M N O P Q R S T U V W X Y Z

The Gaslight Anthem - Casanova Baby tab

-------------------------------------------------------------------------------
			     Casanova, Baby! - The Gaslight Anthem
-------------------------------------------------------------------------------

I love this song and since no one has tabbed this part of the song yet, I thought I'd 
it a shot.
This is the bit played in the background of the chorus and after the chorus too.
It's also my first tab so be nice :)

Tabbed by: IV-J
Email: IV-J@live.co.uk

Tuning:

e|--14-14---14---14-16-14----------------------------------------------------|
B|--------16--------------16-14-16-14-16-16-14-16--16-12-14-16-14-12-11------|
G|---------------------------------------------------------------------------|
D|---------------------------------------------------------------------------|
A|---------------------------------------------------------------------------|
E|---------------------------------------------------------------------------|

e|--14---16--/16-14----------------------------------------------------------|
B|------------------16-14-12-11-12-----------11-12-14-16-14-12-11-12---------|
G|---------------------------------------------------------------------------|
D|---------------------------------------------------------------------------|
A|---------------------------------------------------------------------------|
E|---------------------------------------------------------------------------|

This is the tab for the background of the chorus, the solo is exactly the same except 
beginning of the second part isn't played. You'll figure it out :)
Enjoy!

===============================================================================
Tap to rate this tab
 
# A B C D E F G H I J K L M N O P Q R S T U V W X Y Z