Song name
# A B C D E F G H I J K L M N O P Q R S T U V W X Y Z

The Gaslight Anthem - 1930 tab

Lead Intro: (x2)

E|---------------------------------------------------------------------------|
B|---------------------------------------------------------------------------|
G|--7-7-5-5-------------------------7-7-5-5-------------5-5-7-7-5-5----------|
D|----------8-8-7-7-5-5-7-7-8-8-7-7---------8-8-7-7-8-8----------------------|
A|---------------------------------------------------------------------------|
E|---------------------------------------------------------------------------|

E|---------------------------------------------------------------------------|
B|-----------------------------------6-6-6-6-6-6-6-6-------------------------|
G|--7-7-5-5------------------------------------------------------------------|
D|----------8-8-7-7-5-5-7-7-8-8-7-7------------------8-8-8-8-8-8-8-8---------|
A|---------------------------------------------------------------------------|
E|---------------------------------------------------------------------------|

Rhythm Intro : (x2)

E|---------------------------------------------------------------------------|
B|---------------------------------------------------------------------------|
G|------------------3-3-3-3--------------------------3-3-3-3-----------------|
D|--5-5-5-5-5-5-5-5-3-3-3-3-3-3-3-3--5-5-5-5-5-5-5-5-3-3-3-3-3-3-3-3---------|
A|--5-5-5-5-5-5-5-5-1-1-1-1-3-3-3-3--5-5-5-5-5-5-5-5-1-1-1-1-3-3-3-3---------|
D|--5-5-5-5-5-5-5-5---------3-3-3-3--5-5-5-5-5-5-5-5---------3-3-3-3---------|

E|---------------------------------------------------------------------------|
B|---------------------------------------------------------------------------|
G|-----------------3-3-3-3---------3-3-3-3-3-3-3-3---------------------------|
D|-5-5-5-5-5-5-5-5-3-3-3-3-3-3-3-3-3-3-3-3-3-3-3-3-3-3-3-3-3-3-3-3-----------|
A|-5-5-5-5-5-5-5-5-1-1-1-1-3-3-3-3-1-1-1-1-1-1-1-1-3-3-3-3-3-3-3-3-----------|
D|-5-5-5-5-5-5-5-5---------3-3-3-3-----------------3-3-3-3-3-3-3-3-----------|

Into first verse:

E|---------------------------------------------------------------------------|
B|---------------------------------------------------------------------------|
G|-------------3~------------------------------------------------------------|
D|--3-3-3-3-3----------------------------------------------------------------|
A|--3-3-3-3-3----------------------------------------------------------------|
D|--3-3-3-3-3----------------------------------------------------------------|

Lead Verse: (x2)

E|---------------------------------------------------------------------------|
B|---------------------------------------------------------------------------|
G|--3-3-3-5-5-5-7-7-7-5-5-5--8-8-8-7-7-7-5-5-5-7-7-7-------------------------|
D|---------------------------------------------------------------------------|
A|--1-1-1-3-3-3-5-5-5-3-3-3--6-6-6-5-5-5-3-3-3-5-5-5-------------------------|
E|---------------------------------------------------------------------------|

E|---------------------------------------------------------------------------|
B|---------------------------------------------------------------------------|
G|--10-10-10-8-8-8-7-7-7-8-8-8--10-10-10-12-12-12-10-10-10-7-7-7-------------|
D|---------------------------------------------------------------------------|
A|---8--8--8-6-6-6-5-5-5-6-6-6---8--8--8-10-10-10--8--8--8-5-5-5-------------|
E|---------------------------------------------------------------------------|

Rhythm Verse Pt 1: (x2)

E|---------------------------------------------------------------------------|
B|---------------------------------------------------------------------------|
G|----------------------------3-3-3-3----------------------------------------|
D|--5-5-5-5------1-1-1-1------3-3-3-3------3-3-3-3---------------------------|
A|--5-5-5-5------1-1-1-1------1-1-1-1------3-3-3-3---------------------------|
D|--5-5-5-5------1-1-1-1-------------------3-3-3-3---------------------------|

Rhythm Verse pt 2: (x2)

E|---------------------------------------------------------------------------|
B|---------------------------------------------------------------------------|
G|---------------------------------------------------------------------------|
D|--5-5-5-5-5-5-5-5-5-5-5-5-5-5-5-5-1-1-1-1-1-1-1-1-1-1-1-1-1-1-1-1----------|
A|--5-5-5-5-5-5-5-5-5-5-5-5-5-5-5-5-1-1-1-1-1-1-1-1-1-1-1-1-1-1-1-1----------|
D|--5-5-5-5-5-5-5-5-5-5-5-5-5-5-5-5-1-1-1-1-1-1-1-1-1-1-1-1-1-1-1-1----------|

E|---------------------------------------------------------------------------|
B|---------------------------------------------------------------------------|
G|--3-3-3-3-3-3-3-3-3-3-3-3-3-3-3-3------------------------------------------|
D|--3-3-3-3-3-3-3-3-3-3-3-3-3-3-3-3-3-3-3-3-3-3-3-3-3-3-3-3-3-3-3-3----------|
A|--1-1-1-1-1-1-1-1-1-1-1-1-1-1-1-1-3-3-3-3-3-3-3-3-3-3-3-3-3-3-3-3----------|
D|----------------------------------3-3-3-3-3-3-3-3-3-3-3-3-3-3-3-3----------|


Pre Chorus:

E|---------------------------------------------------------------------------|
B|---------------------------------------------------------------------------|
G|---------------------------------3-3-3-------------------------------------|
D|--5-5-3-3-3-1-1-1-1-1-1-1-1--5-5-3-3-3-1-1-1-1-1-1-1-1---------------------|
A|--5-5-3-3-3-1-1-1-1-1-1-1-1--5-5-1-1-1-1-1-1-1-1-1-1-1---------------------|
D|--5-5-3-3-3-1-1-1-1-1-1-1-1--5-5-------1-1-1-1-1-1-1-1---------------------|

E|---------------------------------------------------------------------------|
B|---------------------------------------------------------------------------|
G|---------------------------------------------------------------------------|
D|--5-5-3-3-3-1-1-1-1-1-1-1-1---3-3-3-3-3-3-3-3------------------------------|
A|--5-5-3-3-3-1-1-1-1-1-1-1-1---3-3-3-3-3-3-3-3------------------------------|
D|--5-5-3-3-3-1-1-1-1-1-1-1-1---3-3-3-3-3-3-3-3------------------------------|
                                  . . . . . . .

Chorus

E|---------------------------------------------------------------------------|
B|---------------------------------------------------------------------------|
G|--3-3-3-3-3-3-3-3-3-3-3-3-3-3-3-3------------------------------------------|
D|--3-3-3-3-3-3-3-3-3-3-3-3-3-3-3-3-3-3-3-3-3-3-3-3-3-3-3-3-3-3-3-3----------|
A|--1-1-1-1-1-1-1-1-1-1-1-1-1-1-1-1-3-3-3-3-3-3-3-3-3-3-3-3-3-3-3-3----------|
D|----------------------------------3-3-3-3-3-3-3-3-3-3-3-3-3-3-3-3----------|

E|---------------------------------------------------------------------------|
B|---------------------------------------------------------------------------|
G|---------------------------------------------------------------------------|
D|--5-5-5-5-5-5-5-5-5-5-5-5-5-5-5-5-1-1-1-1-1-1-1-1-1-1-1-1-1-1-1-1----------|
A|--5-5-5-5-5-5-5-5-5-5-5-5-5-5-5-5-1-1-1-1-1-1-1-1-1-1-1-1-1-1-1-1----------|
D|--5-5-5-5-5-5-5-5-5-5-5-5-5-5-5-5-1-1-1-1-1-1-1-1-1-1-1-1-1-1-1-1----------|

E|---------------------------------------------------------------------------|
B|---------------------------------------------------------------------------|
G|--3-3-3-3-3-3-3-3-3-3-3-3-3-3-3-3------------------------------------------|
D|--3-3-3-3-3-3-3-3-3-3-3-3-3-3-3-3-3-3-3-3-3-3-3-3-3-3-3-3-3-3-3-3----------|
A|--1-1-1-1-1-1-1-1-1-1-1-1-1-1-1-1-3-3-3-3-3-3-3-3-3-3-3-3-3-3-3-3----------|
D|----------------------------------3-3-3-3-3-3-3-3-3-3-3-3-3-3-3-3----------|


E|---------------------------------------------------------------------------|
B|---------------------------------------------------------------------------|
G|---------------------------------------------------------------------------|
D|--5-5-5-5-5-5-5-5-5-5-5-5-5-5-5-1~-1~-1-1-1-1~-----------------------------|
A|--5-5-5-5-5-5-5-5-5-5-5-5-5-5-5-1~-1~-1-1-1-1~-----------------------------|
D|--5-5-5-5-5-5-5-5-5-5-5-5-5-5-5-1~-1~-1-1-1-1~-----------------------------|
                                        . . .

Rhythm Part 2 of Verse 2:

E|---------------------------------------------------------------------------|
B|---6---6---6---6---6---6---6---6---6---6---6---6---------------------------|
G|-3---3---3---3---3---3---3---3---3---3---3---3-----------------------------|
D|---------------------------------------------------------------------------|
A|---------------------------------------------------------------------------|
D|---------------------------------------------------------------------------|

Bridge:

E|---------------------------------------------------------------------------|
B|---------------------------------------------------------------------------|
G|------3-------3-------3-------3-------3-------3-------3-------3------------|
D|----3---3---3---3---3---3---3---3---3---3---3---3---3---3---3---3----------|
A|--1-------1-------1-------1-------1-------1-------1-------1----------------|
D|---------------------------------------------------------------------------|

E|---------------------------------------------------------------------------|
B|---------------------------------------------------------------------------|
G|------3-------3-------3-------3-------3-------3----------------------------|
D|----3---3---3---3---3---3---3---3---3---3---3---3--------------------------|
A|--1-------1----------------------------------------------------------------|
D|------------------3-------3-------1-------1--------------------------------|

Outro Pt 1: (x2)

E|---------------------------------------------------------------------------|
B|---------------------------------------------------------------------------|
G|--3-3-3-3-3-3-3-3-3-3-3-3-3-3-3-3------------------------------------------|
D|--3-3-3-3-3-3-3-3-3-3-3-3-3-3-3-3------------------------------------------|
A|--1-1-1-1-1-1-1-1-1-1-1-1-1-1-1-1------------------------------------------|
D|---------------------------------------------------------------------------|

Outro Pt 2 (x2)

E|---------------------------------------------------------------------------|
B|---------------------------------------------------------------------------|
G|--3-3-3-3-3-3-3-3----------------------------------------------------------|
D|--3-3-3-3-3-3-3-3-3-3-3-3-3-3-3-3-5-5-5-5-5-5-5-5-5-5-5-5-5-5-5-5----------|
A|--1-1-1-1-1-1-1-1-3-3-3-3-3-3-3-3-5-5-5-5-5-5-5-5-5-5-5-5-5-5-5-5----------|
D|------------------3-3-3-3-3-3-3-3-5-5-5-5-5-5-5-5-5-5-5-5-5-5-5-5----------|

E|---------------------------------------------------------------------------|
B|---------------------------------------------------------------------------|
G|--3-3-3-3-3-3-3-3----------------------------------------------------------|
D|--3-3-3-3-3-3-3-3-3-3-3-3-3-3-3-3-5-5-5-5-5-5-5-5-5-5-5-5-5-5-5-5----------|
A|--1-1-1-1-1-1-1-1-3-3-3-3-3-3-3-3-5-5-5-5-5-5-5-5-5-5-5-5-5-5-5-5----------|
D|------------------3-3-3-3-3-3-3-3-5-5-5-5-5-5-5-5-5-5-5-5-5-5-5-5----------|

I'm sorry if that's not 100%, but that's the way I play it.  If you have any 
please make them and repost the tab.  Thanks!
Tap to rate this tab
 
# A B C D E F G H I J K L M N O P Q R S T U V W X Y Z