Guitaretab - guitar tabs
Song name
# A B C D E F G H I J K L M N O P Q R S T U V W X Y Z

The Gaslight Anthem - The Backseat chords

Highlighted       Show chord diagrams
Standard Tuning, Capo on 2nd Fr.

So this is mainly for acoustic guitar. have fun & comment please.


Play the G (320033) and alternatively you can play the F/C (x33210)for the F


Intro Am G F C 2x

Verse: C G Am F

C                               G
In the backseats of burned out cars.
        Am              F
In the disenchantment lane.
          C               G           Am                       F
The ideal angels twist and turn, ask forgiveness for future mistakes.
           C                     G
But you and I we've been through this.
      Am            F
Maybe a 100 times before.
        C                  G
Always hitching rides with strangers.
      Am              F
Papa warned us about before


Chorus:

C
But you know the summer always brought it.
     F
That wild and reckless breeze.
               C                                                F
And in the backseat, we're just trying to find some room for our knees.
             Am                          G                 F
And in the backseat, we're just trying to find some room to breathe.


Verse 2: C G Am F

And in the wild desert sun, we drove straight on through the night.
We rode a fever out of Boston.
Dreamed of California nights.
Come July, we'll ride the Ferris Wheel.
Go round and round and round.
And If you never let me go, well I will never let you down.


Chorus:
[ Tab from: http://www.guitaretab.com/t/the-gaslight-anthem/189917.html ]
But you know the summer always brought it.
That wild and reckless breeze.
And in the backseat, we're just trying to find some room for our knees.
And in the backseat, we're just trying to find some room to breathe.

     
Bridge:

     Em               F            G
And these cowboys all go crazy in the heat.
           Em             
Chasing the lights in all the girls
F                       G
Along the Santa Anna streets that they're just dying to meet.
                    (C)
It meant nothing to me.


Chorus: C F 2x; Am G F 2x

You know the summer always brought it.
That wild and reckless breeze.
And in the backseat we're just trying to find some room for our knees.
Hey!

Outro:

C Am C Am

play like this

e|-3---------------1------0-1-0-----3--------------1---0-1-0----------------|
B|-1---------------0----------------1--------------0------------------------|
G|-0--a few times--0----------------2--a few times-2------------------------|
D|-2---------------2----------------2--------------2------------------------|
A|-3---------------3----------------0--------------0------------------------|
E|--------------------------------------------------------------------------|

e|-3---------------1------0-1-0-----3---------------------------------------|
B|-1---------------0----------------1---------------------------------------|
G|-0--a few times--0----------------2--a few times--------------------------|
D|-2---------------2----------------2---------------------------------------|
A|-3---------------3----------------0---------------------------------------|
E|--------------------------------------------------------------------------|


So thats basically it... I don't know exactly the end of the song, so if someone 
knows it, it would be great.

Please comment.corrections are welcome.

Related for The Backseat chords
Advertisement will be closed in 10 seconds