Song name
# A B C D E F G H I J K L M N O P Q R S T U V W X Y Z

The Gaslight Anthem - Drive chords

Highlighted       Show chord diagrams
Hey, I noticed there was only one tab for this song wich was decent so heres how I play
 I play this on my acoustic and I dont use any particular strumming pattern,  just
I'm feeling when I play it.  Also I've never written out a tab using Chords before so I 
if it came out wierd or hard to understand.  Please Rate/Comment, let me know what
think.

Tuning: A Full Step Down

Intro: I divided the intro into three parts so it would be neat and easier to read.

First part is played once.
Second Part is played twice.
Third part is played once, hit the last note however many times youd like, whatever
for you.

               (1x)
e|----------------|
B|----------------|
G|----14--14--14--|
D|--12--12--12----|
A|----------------|
E|----------------|

                      (4x)                (1x)
e|-----------------------|-------------------|
B|-----------------------|------------12-----|
G|--11p14--11--------11--|--11p14--11----14--|
D|------------12--12-----|-------------------|
A|-----------------------|-------------------|
E|-----------------------|-------------------|

                      (4x)              (1x)
e|-----------------------|-----------------|
B|-----------------------|-----------------|
G|--11p14--11--------11--|--11p14--11--12--|
D|------------12--12-----|-----------------|
A|-----------------------|-----------------|
E|-----------------------|-----------------|

d
In my head
b
I am already gone
g
Side roads pointed up
d         a
Decisions decided on

d
But in my nights
b
There are restless hours
g
3 AM goes down
d         a
Nothing else comes up

b
And the only thing we know
g
Is it's getting dark and we better go
d
And the only thing we say
a
Are the despairs of the day

b
And if you're too tired
g
Go to sleep, my brothers, I
d
And if you're too tired
a
Go to sleep, my brothers
I'm alright to drive

Mess around with the intro between the chorus and next verse, continue Chords throught
song.
Tap to rate this tab
# A B C D E F G H I J K L M N O P Q R S T U V W X Y Z