Song name
# A B C D E F G H I J K L M N O P Q R S T U V W X Y Z

The Gaslight Anthem - Film Noir tab

-------------------------------------------------------------------------------
			     Film Noir - The Gaslight Anthem
-------------------------------------------------------------------------------
Tabbed by: madma7x


Tuning: Standard

Guitar 1 (2 times)

e|---------------1~----------------------------------------------------------|
B|----------3~~~~-3~---------------------------------------------------------|
G|0h2~-------0h2~--2~--3~------3/5-------------------------------------------|
D|0~~~-----------------3~----------------------------------------------------|
A|---------------------------------------------------------------------------|
E|---------------------------------------------------------------------------|

e|--------------1~------------1----------------------------------------------|
B|3~-------3-3~~-2~---3~~~--------3------------------------------------------|
G|2~---------0h2--3~--3~~~---------------------------------------------------|
D|---------------------------------------------------------------------------|
A|---------------------------------------------------------------------------|
E|---------------------------------------------------------------------------|



Second time guitar 2 plays this
e|---------------------------------------------------------------------------|
B|---------------------------------------------------------------------------|
G|---------------------------------------------------------------------------|
D|0-0-0-0-0-0-0-0-----------------0-0-0-0-0-0-0-0----------------------------|
A|----------------1-1-1-1-1-1-1-1-----------------1-1-1-1--------------------|
E|--------------------------------------------------------1-1-1-1------------|
  x x x x x x x x x x x x x x x x x x x x x x x x x x x x x x x x



please rate!


************************************

| /   slide up
| \   slide down
| h   hammer-on
| p   pull-off
| ~   vibrato
| +   harmonic
| x   Mute note
| b   Bend
| pb  Pre-bend
| br  Bend release
| pbr Pre-bend release
| brb Bend release bend

************************************

Tap to rate this tab
# A B C D E F G H I J K L M N O P Q R S T U V W X Y Z