Song name
# A B C D E F G H I J K L M N O P Q R S T U V W X Y Z

The Gaslight Anthem - Casanova Baby tab

e|--13-13---13---13-15-15----------------------------------------------------|
B|--------15--------------15-13-15-13-15-13-13-15--15-11-13-15-13-11-10------|
G|---------------------------------------------------------------------------|
D|---------------------------------------------------------------------------|
A|---------------------------------------------------------------------------|
E|---------------------------------------------------------------------------|

e|--13--------15-13----------------------------------------------------------|
B|-----11--11-------15-13-11-10-11----11-10-11-13-15-13-11-11----------------|
G|---------------------------------------------------------------------------|
D|---------------------------------------------------------------------------|
A|---------------------------------------------------------------------------|
E|---------------------------------------------------------------------------|
Tap to rate this tab
# A B C D E F G H I J K L M N O P Q R S T U V W X Y Z