Song name
# A B C D E F G H I J K L M N O P Q R S T U V W X Y Z

The Gaslight Anthem - Even Cowgirls Get The Blues tab

Ok, this is my first tab so please rate it. 
Sorry there is no solo, still working on it. Please listen to the song for the 
rhythm chord changes and use your own discretion with the two variations of the E chord. 
It's a pretty easy song so enjoy and have fun! 

Tuning: EADGBe

/ = slide up
\ = slide down
h = hammer on 
p = pull off
b = bend
r = release
x = muted string
~ = vibrato

Main Riff
e|----7-------------------------------------|
B|-9~----9-7----7---------------------------|
G|-----------8~---8-7-6~-6-6h7h8------------|
D|-------------------------------6~--4/-----|
A|------------------------------------------|
E|------------------------------------------|

e|----7-------------------------------------|
B|-9~----9-7----7---------------------------|
G|-----------8~---8-7-6~-6-6h7h8------------|
D|-------------------------------6~---------|
A|------------------------------------------|
E|------------------------------------------|

e|----7-------------------------------------|
B|-9~----9-7----7---------------------------|
G|-----------8~---8-7-6~-6-6h7h8------------|
D|-------------------------------6~--4/-----|
A|------------------------------------------|
E|------------------------------------------|

e|----7----------------9-9b(1/2)9-7---------|
B|-9~----9-7----7------------------9~--7-9~-|
G|-----------8~---8-7-6---------------------|
D|------------------------------------------|
A|------------------------------------------|
E|------------------------------------------|

Chords
    G#m  F# E  B  E(alternate)
e|--4----2--0--2--4----------|
B|--4----2--0--4--5----------|
G|--4----3--1--4--4----------|
D|--6----4--2--4--6----------|
A|--6----4--2--2--7----------|
E|--4----2--0--x--x----------|

Intro and Chorus

G#m - B - F# - G#m

Verse 

G#m - F# - E - B

Bridge

E - B - F#
Tap to rate this tab
# A B C D E F G H I J K L M N O P Q R S T U V W X Y Z