Song name
# A B C D E F G H I J K L M N O P Q R S T U V W X Y Z

The Gaslight Anthem - The 59 Sound tab

okay, i only have the intro, verse, and pre-chorus, but it sounds EXACTLY like the real song.

fast downstrokes for the whole song.

CAPO ON 3RD FRET

intro:
E-------3----------3----------0----------2----------0----------|
B-------0----------0----------0----------3----------1----------|
G-------0----------0-(x16)----0----------2----------0----------|
D-------0-(x16)----2----------2-(x8)-----0-(x8)-----2-(X16)----|
A-------2----------3----------2----------0----------3----------|
E-------3---------------------0----------3----------0----------|


Verse:
E-------0---------------------0----------0----------|
B-------0----------3----------0----------1----------|
G-------0----------4----------0----------0----------|
D-------2-(X16)----4-(X16)----2-(X16)----2-(X16)----|
A-------2----------2----------2----------3----------|
E-------0---------------------0----------0----------|


Pre-chorus:
E----------------------------------------------------------------------/
B----------------------------------------------------------------------/
G-------0--------0-------0-------0-------0-------0-------0-------0-----/
D----------2-------2---2---2---2---2---0---0---0---0---0---0---0---0---/
A-----2--------2-----3-------3-------2-------2-------------------------/
E---0--------0---------------------------------------2-------2---------/


CHORUS IS SAME AS INTRO.

and that's all i got. enjoy!
Tap to rate this tab
 
# A B C D E F G H I J K L M N O P Q R S T U V W X Y Z