The Gaslight Anthem - The Spirit Of Jazz tab

The notes are right, but I didn't put in all the variations. The note in brackets 
is sometimes left out, and on the record Alex uses more hammer-ons/pull-offs.

   E E E E Q  E E    E  E E E E E E E

1|-5h7-7-5-7--5-7-|-(7)-5-7-7-8-8-7-5-|
2|----------------|-------------------|
3|----------------|-------------------|
4|----------------|-------------------|
5|----------------|-------------------|
6|----------------|-------------------|


   E E E E Q  E E    E  E E E E  E  E E

1|-5h7-7-5-7--5-7-|-(7)-5-7-7-10-10-7-5-|
2|----------------|---------------------|
3|----------------|---------------------|
4|----------------|---------------------|
5|----------------|---------------------|
6|----------------|---------------------|


   E E E E Q  E E    E  E E E E E E E

1|-5h7-7-5-7--5-7-|-(7)-5-7-7-8-8-7-5-|
2|----------------|-------------------|
3|----------------|-------------------|
4|----------------|-------------------|
5|----------------|-------------------|
6|----------------|-------------------|


   E E E E E E E E   W

1|-5-7-7-7-7-5-5-3-|-3--------|
2|-----------------|----------|
3|-----------------|----------|
4|-----------------|----------|
5|-----------------|----------|
6|-----------------|----------|

W - Whole note
Q - Quarter note
E - Eighth note
Tap to rate this tab
 
# A B C D E F G H I J K L M N O P Q R S T U V W X Y Z