The Gaslight Anthem - Songs For Teenagers tab

Ok So This Is My First Tab. Um There Are A Few Guitars That Play Little Riffs And Things 
The Background But I Just Tried To Tab This For One So There May Be Bits Missing. Enjoy 
Feel Free To Comment
Cadd9  Em7    G
e|x    e|x    e|x
B|3    B|3    B|3
G|0    G|0    G|0
D|2    D|2    D|0
A|3    A|2    A|2
E|x    E|x    E|3

Intro x2
e|---0------0-----0------0---|
B|----3------3-----3------3--|
G|--0------0-----0------0----|
D|-2------0------------0-----|
A|--------------3------------|
E|---------------------------|

e|---0------0-----0------0---|
B|----3------3-----3------3--|
G|--0------0-----0------0----|
D|-2------0------------------|
A|--------------3------------|
E|---------------------3-----|

Verse x4
e|----------------------------------------------------------------|
B|----------------------------------------------------------------|
G|-(0)-(0)-(0)-(0)-(0)-(0)-(0)-(0)----------------(0)-(0)-(0)-(0)-|
D|--2---2---2---2---0---0---0---0-(0)-(0)-(0)-(0)--0---0---0---0--|
A|---------------------------------3---3---3---3------------------|
E|----------------------------------------------------------------|
  Looking for love in all the wrong places
  Wanted to be famous but ended up nameless
  Love is not the answer, I'm in love with this stuff
  I spent every last dime in the back seat of a stranger's truck

  Intro x2
  It's okay, I'm all right, I,ll be okay

  Verse x4
  First time I felt like I was gonna die
  But I've gotten pretty good at telling myself It's fine
  Anna talks me down and gives me sips of her beer
  Head pounding reveillie, How did I get here?

  Intro x4
 Let it go all the way down till there's nowhere left to fall
 It's a shame all the ways we build ourselves up just to let each other down

  Verse x4
  I was looking for drugs in all the wrong places
  Felt a change coming but I couldn't face it
  I tried to keep my cool when i finally made it home
  I had a blood shot excuse for every lie I ever told you

  Intro x4
 But I'm all right and I'll be okay
 Let it go all the way down till there's nowhere left to fall
 It's a shame all the ways we build ourselves up just to let each other down

  Bridge
       Cadd9          Em7
  Last night is all a blur to me
    Cadd9          Em7
  I don't remember anything
        Cadd9     Em7             G
  But I vaguley recall waking up alone

e|-------------------------------------|
B|-------------------------------------|
G|-2h4-4-4-2---------------------------|
D|-------------------------------------|
A|-------------------------------------|
E|-------------------------------------|

e|-10-8-7-5-3-(x3)-10-8-7--------------|
B|-------------------------------------|
G|-------------------------------------|
D|-------------------------------------|
A|-------------------------------------|
E|-------------------------------------|

  Verse x10
 It's all right It's okay I'm all right I'll be okay
 Let it go all the way down till there's nowhere left to fall
 It's a shame all the ways we build ourselves up just to let each other down
 Let it go all the way down till there's nowhere left to fall
 It's a shame all the ways we build ourselves up just to let each other down
 End on G
Tap to rate this tab
 
# A B C D E F G H I J K L M N O P Q R S T U V W X Y Z