The Gaslight Anthem - The Navesink Banks tab

looking at the other chords tabs, this is how it is strummed...
     
    intro
eb|----------|
Bb|----------|
Db|----------|  
Gb|----0h2-0-| 
Ab|-0h2------|
Eb|----------|


    Am            F    
eb|-x----x----xx--x----x----xx--|
Bb|-1----1----11--1----1----11--|
Db|-0h2--2----22--0h2--2----22--|  
Gb|-0h2--2----22--0h3--3----33--| 
Ab|-0----0----00--0----0----00--|
Eb|-----------------------------|
    Am            F    
eb|-x----x----xx--x----x----xx--|
Bb|-1----1----11--1----1----11--|
Db|-0h2--2----22--0h2--2----22--|  
Gb|-0h2--2----22--0h3--3----33--| 
Ab|-0----0----00--0----0----00--|
Eb|-----------------------------|

    C             G    
eb|-x----x----xx--x----x----xx--|
Bb|-1----1----11--1----1----11--|
Db|-0----0----22--0----0----00--|  
Gb|-0h2--2----22--0----0----00--| 
Ab|-0h3--3----00--0h2--2----22--|
Eb|---------------0h3--3----33--|
    Am            Am    
eb|-x----x----xx--x----x----xx--|
Bb|-1----1----11--1----1----11--|
Db|-0h2--2----22--0h2--2----22--|  
Gb|-0h2--2----22--0h2--2----22--| 
Ab|-0----0----00--0----0----00--|
Eb|-----------------------------|

Repeat this pattern for the whole song :) A,F,A,F,C,G,A,A. 
Tap to rate this tab
 
# A B C D E F G H I J K L M N O P Q R S T U V W X Y Z